Sei qui: Home CDS - Accordi Chitarra - Accordi Maggiori Sesta
Una volta imparati gli accordi principali, quelli più comuni ed immediati, non ci rimane che affrontare gli accordi più complessi e particolari.

Si può cominciare analizzando gli accordi maggiori di sesta, per trovare accordi meno scontati del solito, che abbiano sfumature e sonorità particolari...

DO Maggiore 6 (sesta) - C6
DO maggiore sesta

tab do maggiore sesta

RE maggiore 6 - D6
RE maggiore sesta

tab re maggiore sesta

MI maggiore 6 - E6
MI maggiore sesta

E0|-----|-----|-----|-----|
B |-----|--4--|-----|-----|
G |--1-|-----|-----|-----|
D |-----|--3--|-----|-----|
A |-----|--2--|-----|-----|
E0|----|-----|-----|-----|

FA maggiore 6 - F6
FA maggiore sesta

E |--1--|-----|-----|-----|
B |-----|------|--4--|-----|
G |-----|--2--|-----|-----|
D |-----|------|--3--|-----|
A0|-----|-----|-----|-----|
Ex|-----|-----|-----|-----|

SOL maggiore 6 - G6
SOL maggiore sesta

E0|-----|-----|-----|-----|
B0|-----|-----|-----|-----|
G0|-----|-----|-----|-----|
D0|-----|-----|-----|-----|
A |-----|--2--|-----|-----|
E |-----|-----|--3--|-----|

LA maggiore 6 - A6
LA maggiore sesta

tab la maggiore sesta

SI maggiore 6 - B6
SI maggiore sesta

tab si maggiore sesta

Tutti gli Accordi: Maggiori - Minori - Accordi Barrè - Di Settima
Consigli per gli Acquisti

Cerca su CDS
Condividi su FaceBook


Partner CDS

Acquari Low Cost
Consigli per investire

Contatti

Per conttatarmi puoi scrivermi qui: andreacatarsi77(chiocciola)gmail.com

Libri consigliati da CDS
Vetrina CDS

© 2005-2014 Copyright Chitarradaspiaggia.com - Assolutamente vietata la riproduzione anche solo parziale dei contenuti del sito se non attraverso esplicito consenso dell'autore