Accordi Tab Intro Arpeggio Pino Daniele - Terra mia

Hai trovato gli accordi chords di una canzone ad orecchio e vorresti suggerirla? Oppure vuoi proporre la TAB per chitarra del tuo Riff preferito? il testo? Questo è il forum giusto! Anche per suggerimenti sul ritmo di una canzone. Ricordati di usare la funzione cerca...

Accordi Tab Intro Arpeggio Pino Daniele - Terra mia

Messaggiodi noice

video ->



video cover ( by Nam77 ) ->




Codice: Seleziona tutto
                  RE-
Comm'è triste, comm'è amaro

              SOL-                            la7
st'assettato e guarda tutt'è cose

      SOL-  LA4  LA7  RE-
tutt'e parole cha niente pònno fà

          SIb                                      FA+
si m'accido agg'jettato chellu poco 'e libertà

             MI7                                LA7
ca sta' terra e sta' gente  'nu juorno m'addarà

          RE-         DO7  FA         SOL-             LA7
Terra mia terra mia comm'è bello a la penzà

          SIb  RE-  DO7  FA         SIb                LA7
Terra mia terra mia comm'è bello a la uardà

Nun è overo nun è sempre 'o stesso

tutt'e journe po' cagnà

ogge è deritto, dimane è stuorto

e chesta vita se ne va

'e vecchie vanno dinto a chiesia

cu' a curona pe' prià

e 'a paura 'e chesta morte ca nun ce vo' lassà

Terra mia terra mia tu sì chiena 'e libertà

Terra mia terra ia ì ma siento 'a libertà



Codice: Seleziona tutto
Terra Mia (Concerto "Medina tour 2001") 
by Dino 85

intro

|-----0-------0-5-3------------0-------------0--|
|----3-3-----3------6-5-2-----3-3-----3-----3---|
|---2---2-2-3----------------2---2-2-3-----3----|
|--0-----0-0----------------0-----0-0-----0-----|
|-----------------------------------------------|
|-----------------------------------------------|


strofa

|-----0-------0-------0-------0----------5----5----5----|
|----3-3-----3-3-----3-3-----3-3--------5-5--5-5--5-5---|
|---2---2-2-2---2-2-2---2-2-2---2-2----6----6---6-------|
|--0-----0-0-----0-0-----0-0-----0----7----7-----7---7--|
|-------------------------------------------------------|
|-------------------------------------------------------|



|-----0-------0------------------------0---------------0--|
|----3-3-----3-3---------3---3---3---2--------3-------2---|
|---2---2-2-2---2-2-----3-3-3-3-3-3-0-0------2-2-----2----|
|--0-----0-0-----0---------4---3---2--------2---2-2-2-----|
|------------------------------------------0-----0-0------|
|----------------------3----------------------------------|

ritornelo

|--1---1--1--------------------------0--|
|--3--3--3---2---2--2--3---3--3-----2---|
|--2-2--2----3--3--3---3--3--3-----0----|
|--0---0--0--3-3--3----5-5--5-----2-----| X 2  (poi daccapo)
|------------1---1--1--5---5--5--0------|
|---------------------------------------|
"i plettri sono fatti per essere persi, dimenticati, fregati agli amici, scambiati come fiches del casinò.. lavati con i jeans.." [cit. Mario]

Guida ai plettri per chitarra
Avatar utente
noice
Ricercatore CDS
Ricercatore CDS
 
Messaggi: 1718
Località: Ischia


Re: Pino Daniele - Terra mia

Messaggiodi slash92

andrebbe aggiunta al canzoniere :-P
slash92
Musicista affermato
Musicista affermato
 
Messaggi: 891
Località: vicino Pompei (NA)



Torna a Accordi TAB Riff testo chords - Studiare canzoni


Chi c’è in linea

Visitano il forum: Nessuno e 6 ospiti



croncron