Accordi tab arpeggio Linkin Park Kansas dust in the wind

Hai trovato gli accordi chords di una canzone ad orecchio e vorresti suggerirla? Oppure vuoi proporre la TAB per chitarra del tuo Riff preferito? il testo? Questo è il forum giusto! Anche per suggerimenti sul ritmo di una canzone. Ricordati di usare la funzione cerca...

Messaggiodi Clapton

mauz bitto ha scritto:clà dipende se stai suonando un Do o un Do7+ perchè nel secondo caso la
2^ corda deve essere suonata a vuoto. quale accordo prevede la canzone?

In quella che ho postato io è un DO.
Clapton
Musicista guru
Musicista guru
 
Messaggi: 1803
Località: Caltanissetta


Messaggiodi mauz bitto

aspe io mo ho preso la tua tab:
Codice: Seleziona tutto
INTRO:
(anulare e medio fermi su 5° e 4° corda, indice e mignolo si alternano sulla 2°)
   DO              DO maj7              DO add9          DO
E----------------------------------+-----------------------------------+     
B--1---------1-----0---------0-----|---3---------3-----1---------1-----|     
G--------0-------0-------0-------0-|---------0-------0-------0-------0-|     
D------2-------2-------2-------2---|-------2-------2-------2-------2---|     
A--3-------3-------3-------3-------|---3-------3-------3-------3-------|     
E----------------------------------+-----------------------------------+ 

se vedi prima c'è il Do e poi il Do7+ ( Domaj7 come è scritto).
Do := X32010
Do7+ := X32000

quindi le tab concordano sugli accordi ma differiscono sull'arpeggio.

mo aspetta che provo a sentire la canzone e ti dico (cmq la tab è del
giustiziere di cui mi posso fidare ciecamente :wink: )
mauz bitto
Musicista guru
Musicista guru
 
Messaggi: 3531
Località: Bitonto (Ba)

Messaggiodi Clapton

mauz scusa io guardavo la prima riga che è solo un esercizio prima di cominciare, non me ne ero accorto scusate! Comunque Sale diceva bene in quella postata da lui mancano le note suonate a vuoto!
Clapton
Musicista guru
Musicista guru
 
Messaggi: 1803
Località: Caltanissetta

Messaggiodi Sale

Ok, credo di aver capito :) Grazie mille!!
Avatar utente
Sale
Musicista embrione
Musicista embrione
 
Messaggi: 10

Messaggiodi Clapton

Sale ha scritto:Ok, credo di aver capito :) Grazie mille!!

Mi dispiace se non sono stato chiaro ma personalmente non conosco bene la canzone!
Clapton
Musicista guru
Musicista guru
 
Messaggi: 1803
Località: Caltanissetta

Messaggiodi Sale

Non preoccuparti, anzi, va benissimo! Riascoltandola e trovando il ritmo giusto ora in effetti la tab del mio amico mi sembra sbagliata... Ve l'ho detto, sto muovendo i primi passi :) Dovete aver pazienza...
Avatar utente
Sale
Musicista embrione
Musicista embrione
 
Messaggi: 10


Accordi tab arpeggio Linkin Park Kansas dust in the wind

Messaggiodi fabio440hz

Ciao, primo post..siccome da quest'anno non faccio piu corsi di chitarra ho pensato di iscrivermi a un forum e chiedere i miei dubbi qui..

Sto studiando questa canzone, una versione di solo arpeggio che segue anche le parole..l'arrangiamento è di un certo sungha jung, e vi propongo il video di questa ragazza che è una macchina da guerra..




però mi sono bloccato già all'inizio: non capisco cosa fa alla seconda strofa quando passa dal Sol al Re minore e al La minore (nel video dal secondo 26 al 30)..ho trovato anche una tab in web ma non è che ci azzecca molto, se qualcuno riesce a tirare giù a orecchio (e video anche) che mi dice la sequenza precisa da eseguire e magari se avete passione fate anche un video a rallentatore :)

Ciao e grazie
fabio440hz
Musicista embrione
Musicista embrione
 
Messaggi: 3

Accordi tab arpeggio Linkin Park Kansas dust in the wind

Messaggiodi io_sono_leggenda

Hai provato con questa TAB?
Codice: Seleziona tutto
Intro:

----------------|---------------|---------------|----------------|
--1-------1-----|-0-------0-----|-3-------3-----|-1-------1------|
------0-------0-|-----0-------0-|-----0-------0-|-----0-------0--|
----2-------2---|---2-------2---|---2-------2---|---2-------2----|
--3-----3-------|-3-----3-------|-3-----3-------|-3-----3--------|
----------------|---------------|---------------|----------------|

----------------|---------------|---------------|----------------|
--0-------0-----|-3-------3-----|-1-------1-----|-0-------0------|
------2-------2-|-----2-------2-|-----2-------2-|-----2-------0--|
----2-------2---|---2-------2---|---2-------2---|---2-------2----|
--0-----0-------|-0-----0-------|-0-----0-------|-0-----0--------|
----------------|---------------|---------------|----------------|

----------------|---------------|---------------|----------------|
--3-------3-----|-1-------1-----|-0-------0-----|-3-------3------|
------0-------0-|-----0-------0-|-----0-------0-|-----0-------0--|
----2-------2---|---2-------2---|---2-------2---|---2-------2----|
--3-----3-------|-3-----3-------|-3-----3-------|-3-----3--------|
----------------|---------------|---------------|----------------|

----------------|---------------|---------------|------------|
--1-------1-----|-0-------0-----|-3-------3-----|-1-------0--|
------2-------2-|-----2-------2-|-----2-------2-|-----2---0--|
----2-------2---|---2-------2---|---2-------2---|---2--------|
--0-----0-------|-0-----0-------|-0-----0-------|-0-----0-2--|
----------------|---------------|---------------|------------|

Verse:

----------------|---------------|-0-------------|----------------|
--1-------1-----|-3-------3-----|---------1-----|-1-------1------|
--0---0-------0-|-----0-------0-|-----2-------2-|-----2-------0--|
----2-------2---|---0-------0---|---2-------2---|---2-------2----|
--3-----3-------|-2-----2-------|-0-----0-------|-0-----0--------|
----------------|---------------|---------------|----------------|

--3---3---3-----|-3-1---0---|-----0---------|------------|
--------------3-|---------3-|-3-------1-----|-1-----1-3--|
----0-------0---|-----2---2-|-------------2-|-----2---0--|
----------------|-0-----0---|---2---2---2---|---2--------|
----------------|-----------|-0-------------|-0-----0-2--|
--3-----3-------|-----------|---------------|------------|

----------------|---------------|-0-------------|----------------|
--1-------1-----|-3-------3-----|---------1-----|-1-------1------|
--0---0-------0-|-----0-------0-|-----2-------2-|-----2-------0--|
----2-------2---|---0-------0---|---2-------2---|---2-------2----|
--3-----3-------|-2-----2-------|-0-----0-------|-0-----0--------|
----------------|---------------|---------------|----------------|

--3---3---3-----|-3-1---0---|-----0---------|----------------|
--------------3-|---------3-|-3-------1-----|-1-------1------|
----0-------0---|-----2---2-|-------------2-|-----2-------0--|
----------------|-0-----0---|---2---2---2---|---2-------2----|
----------------|-----------|-0-------------|-0-----0--------|
--3-----3-------|-----------|---------------|----------------|

Chorus:

----------------|-----------|---------------|----------------|
--3-------3-----|-3---1---0-|---------1-----|-1-------1------|
------2-------2-|-----------|-2---2-------2-|-----2-------0--|
----0-------0---|---0-----0-|---2-------2---|---2-------2----|
----------------|-----------|-0-----0-------|----------------|
--2-----2-------|-3-----3---|---------------|-3-----3--------|

----------------|-----------|---------------|-----------|
--3---3---3-----|-3---1---0-|---------0-----|-0-h-1--3--|
--------------2-|-----------|-2---2-------2-|--------0--|
----0-------0---|---0-----0-|---2-------2---|-----------|
----------------|-----------|-0-----0-------|-0------2--|
--2-----2-------|-3-----3---|---------------|-----------|

Verse:

----------------|---------------|-0-------------|----------------|
--1-------1-----|-3-------3-----|---------1-----|-1-------1------|
--0---0-------0-|-----0-------0-|-----2-------2-|-----2-------0--|
----2-------2---|---0-------0---|---2-------2---|---2-------2----|
--3-----3-------|-2-----2-------|-0-----0-------|-0-----0--------|
----------------|---------------|---------------|----------------|

--3---3---3-----|-3-1---0---|-----0---------|------------|
--------------3-|---------3-|-3-------1-----|-1-----1-3--|
----0-------0---|-----2---2-|-------------2-|-----2---0--|
----------------|-0-----0---|---2---2---2---|---2--------|
----------------|-----------|-0-------------|-0-----0-2--|
--3-----3-------|-----------|---------------|------------|

----------------|---------------|-0-------------|----------------|
--1-------1-----|-3-------3-----|---------1-----|-1-------1------|
--0---0-------0-|-----0-------0-|-----2-------2-|-----2-------0--|
----2-------2---|---0-------0---|---2-------2---|---2-------2----|
--3-----3-------|-2-----2-------|-0-----0-------|-0-----0--------|
----------------|---------------|---------------|----------------|

--3---3---3-----|-3-1---0---|-----0---------|----------------|
--------------3-|---------3-|-3-------1-----|-1-------1------|
----0-------0---|-----2---2-|-------------2-|-----2-------0--|
----------------|-0-----0---|---2---2---2---|---2-------2----|
----------------|-----------|-0-------------|-0-----0--------|
--3-----3-------|-----------|---------------|----------------|

Chorus:

----------------|-----------|---------------|----------------|
--3-------3-----|-3---1---0-|---------1-----|-1-------1------|
------2-------2-|-----------|-2---2-------2-|-----2-------0--|
----0-------0---|---0-----0-|---2-------2---|---2-------2----|
----------------|-----------|-0-----0-------|----------------|
--2-----2-------|-3-----3---|---------------|-3-----3--------|

----------------|------------|
--3---3---3-----|-3---1---3--|
--------------2-|------------|
----0-------0---|---0-----0--|
----------------|------------|
--2-----2-------|-3-----3----|

Interlude:

--0-------------|-0---0---0---|---------------|----------------|
----------0-----|-------------|---------0-----|-0-------0------|
------5-------5-|-------------|-7---7-------7-|-----7-------0--|
----7-------7---|---7-------7-|---5-------5---|---5-------0----|
--0-----0-------|-0-----0-----|-0-----0-------|-0-----0--------|
----------------|-------------|---------------|----------------|

----------------|-------3-----|-5-------------|----------------|
--6-------0-----|-0-----------|---------0-----|-0-------0------|
------5-------5-|-----5-----5-|-----5-------5-|-----5-------0--|
----3-------3---|---3-----3---|---3-------3---|---3-------0----|
--0-----0-------|-0-----0-----|-0-----0-------|-0-----0--------|
----------------|-------------|---------------|----------------|

--0-------------|----------------|
----------1-----|-0-------0------|
------2-------2-|-----2-------0--|
----2-------2---|---2-------2----|
--0-----0-------|-0-----0--------|
----------------|----------------|

--------------|-------------------|-------------|------------------|
--3-1-0---1-3-|-------0-h-1-3-----|-1-0-----0-1-|---------0-1---0--|
--------------|-0-h-2-----------0-|-----2-------|---0-h-2-----2----|
----0-------0-|-------0-------0---|---3-------3-|-3---------3------|
--------------|-------------------|-------------|------------------|
--3-----3-----|-3-----------3-----|-1-----1-----|-1----------------|

----------------|-------------------------|---------------|----------------|
--------------0-|-1-p-0-------------------|---------1-----|-0-------0------|
--2------2------|-------2-p-0-2-p-0-------|-----2-------2-|-----2-------0--|
------3-----3---|-------------------2-p-0-|-2-2-------2---|---2-------2----|
----3-----------|-------------------------|-0-----0-------|-0-----0--------|
--1-----1-------|-------------------------|---------------|----------------|

--------------|-------------------|-------------|------------------|
--3-1-0---1-3-|-------0-h-1-3-----|-1-0-----0-1-|---------0-1---0--|
--------------|-0-h-2-----------0-|-----2-------|---0-h-2-----2----|
----0-------0-|-------0-------0---|---3-------3-|-3---------3------|
--------------|-------------------|-------------|------------------|
--3-----3-----|-3-----------3-----|-1-----1-----|-1----------------|

----------------|-----------------0---|-3-------------|----------------|
--------------0-|-1-p-0---0-1-h-3---6-|---------5-----|-5-------5------|
--2------2------|-------2-------------|-----5-------5-|-----5-------5--|
------3-----3---|---------------------|---5-------5---|---5-------5----|
----3-----------|---------------------|-3-----3-------|-3-----3--------|
--1-----1-------|---------------------|---------------|----------------|

--3-h-5-3---3-----------|-----------------------|---------------|----------------|
----------6---6-s-5-p-3-|-5-p-3-5-p-3---3-------|---------1-----|-0-------0------|
------------------------|-------------5---5-s-4-|-----2-------2-|-----2-------0--|
------------------------|-----------------------|-2-2-------2---|---2-------2----|
--3---------------------|-----------------------|-0-----0-------|-0-----0--------|
------------------------|-----------------------|---------------|----------------|

----------------------|-------0-------0---5--|
----0-h-1---0-h-1---0-|-1-h-3---1-h-3---6----|
--2-------2-------2---|----------------------|
----------2-----------|----------------------|
--0-------------------|-0--------------------|
----------------------|----------------------|

--3-------------|----------------|
----------5-----|-5-------5------|
------5-------5-|-----5-------5--|
----5-------5---|---5-------5----|
--3-----3-------|-3-----3--------|
----------------|----------------|

--3-h-5-3---3-----------|------------------------|
----------6---6-s-5-p-3-|-5-p-3-5-p-3---3--------|
------------------------|-------------5---5-s-4--|
------------------------|------------------------|
--3---------------------|------------------------|
------------------------|------------------------|

----------------|---------------|---------------|------------|
----------1-----|-0-------0-----|-3-------3-----|-1-------3--|
--2---2-------2-|-----2-------2-|-----2-------2-|-----2---0--|
----2-------2---|---2-------2---|---2-------2---|---2--------|
--0-----0-------|-0-----0-------|-0-----0-------|-0-----0-2--|
----------------|---------------|---------------|------------|

Verse:

----------------|---------------|-0-------------|----------------|
--1-------1-----|-3-------3-----|---------1-----|-1-------1------|
--0---0-------0-|-----0-------0-|-----2-------2-|-----2-------0--|
----2-------2---|---0-------0---|---2-------2---|---2-------0----|
--3-----3-------|-2-----2-------|-0-----0-------|-0-----0--------|
----------------|---------------|---------------|----------------|

--3---3---3-s-5---|-3-1---0---|---1-p-0---------|------------|
----------------3-|---------3-|-3-------------1-|-------1-3--|
----0---------0---|-----2---2-|-----------2-----|-----2---0--|
------------------|-0-----0---|---2---------2---|---2--------|
------------------|-----------|-0-------0-------|-0-----0-2--|
--3-----3---------|-----------|-----------------|------------|

----------------|-0-------------|-0---------------|----------------|
--1-------1-----|-----3---------|---3-p-1-------1-|---------1------|
--0---0-------0-|---------0---0-|-----------2-----|-----2-------0--|
----2-------2---|---0-------0---|---2---------2---|---2-------0----|
--3-----3-------|-2-----2-------|-0-------0-------|-0-----0--------|
----------------|---------------|-----------------|----------------|

--3---3---3-s-5---|-3-1---0---|-----0-------3-|-s-5--------------|
----------------3-|---------3-|-3---1---------|------------------|
----0---------0---|-----2---2-|---------2-----|-------2---2---0--|
------------------|-0-----0---|---2---2---2---|-----2-------0----|
------------------|-----------|-0-------------|---0-----0--------|
--3-----3---------|-----------|---------------|------------------|

Chorus:

----------------|-----------|-0-------------|----------------|
--3---3---3-----|-3---1---0-|---------1-----|-1-------1------|
--------------2-|-----------|-----2-------2-|-----2-------0--|
----0-------0---|---0-----0-|---2-------2---|---2-------2----|
----------------|-----------|-0-----0-------|----------------|
--2-----2-------|-3-----3---|---------------|-3-----3--------|

----------------|-----0-1-|-0-------------|----------------|
--3-------3-----|-3-------|---------1-----|-1-------1------|
------2-------2-|---0---0-|-----2-------2-|-----2-------0--|
----0-------0---|---------|---2-------2---|---2-------2----|
----------------|---------|-0-----0-------|----------------|
--2-----2-------|-3-------|---------------|-3-----3--------|

----------------|-----------|-0-------------|----------------|
--3-------3-----|-3---1---0-|---------1-----|-1-------1------|
------2-------2-|-----------|-----2-------2-|-----2-------0--|
----0-------0---|---0-----0-|---2-------2---|---2-------2----|
----------------|-----------|-0-----0-------|----------------|
--2-----2-------|-3-----3---|---------------|-3-----3--------|

----------------|------------|
--3---3---3-----|-3----------|
--------------2-|-----0---0--|
----0-------0---|---0---2----|
----------------|------------|
--2-----2-------|-3----------|

Outro:

----------------|---------------|---------------|----------------|
----------1-----|-0-------0-----|-3-------3-----|-1-------1------|
--2---2-------2-|-----2-------2-|-----2-------2-|-----2-------2--|
----2-------2---|---2-------2---|---2-------2---|---2-------2----|
--0-----0-------|-0-----0-------|-0-----0-------|-0-----0--------|
----------------|---------------|---------------|----------------|

----------------|---------------|---------------|----------------|
--0-------0-----|-3-------3-----|-1-------1-----|-0-------0------|
------2-------2-|-----2-------2-|-----2-------2-|-----2-------2--|
----2-------2---|---2-------2---|---2-------2---|---2-------2----|
--0-----0-------|-0-----0-------|-0-----0-------|-0-----0--------|
----------------|---------------|---------------|----------------|

----------------|---------------|---------------|----------------|
--3-------3-----|-1-------1-----|-0-------0-----|-3-------3------|
------2-------2-|-----2-------2-|-----2-------2-|-----2-------2--|
----2-------2---|---2-------2---|---2-------2---|---2-------2----|
--0-----0-------|-0-----0-------|-0-----0-------|-0-----0--------|
----------------|---------------|---------------|----------------|

----------------|---------------|---------------|----------------|
--1-------1-----|-0-------0-----|-3-------3-----|-1-------1------|
------2-------2-|-----2-------2-|-----2-------2-|-----2-------2--|
----2-------2---|---2-------2---|---2-------2---|---2-------2----|
--0-----0-------|-0-----0-------|-0-----0-------|-0-----0--------|
----------------|---------------|---------------|----------------|

----------------|---------------|---------------|----------------|
--0-------0-----|-3-------3-----|-1-------1-----|-0-------0------|
------2-------2-|-----2-------2-|-----2-------2-|-----2-------2--|
----2-------2---|---2-------2---|---2-------2---|---2-------2----|
--0-----0-------|-0-----0-------|-0-----0-------|-0-----0--------|
----------------|---------------|---------------|----------------|

----------------|---------------|---------------|-----|
--3-------3-----|-1-------1-----|-0-------0-----|-3~--|
------2-------2-|-----2-------2-|-----2-------2-|-----|
----2-------2---|---2-------2---|---2-------2---|-----|
--0-----0-------|-0-----0-------|-0-----0-------|-0~--|
----------------|---------------|---------------|-----|


Ecco anche il video di Sungha Jung:

Avatar utente
io_sono_leggenda
Musicista affermato
Musicista affermato
 
Messaggi: 980

Re: Linkin Park / Kansas - dust in the wind

Messaggiodi fabio440hz

è quella che ho trovato io, proprio da guitar tab by shunga shushi, però probabilmente sono imbranato perchè non riesco a fare saltare fuori quel passaggio da quella tab..a te riesce?

--3---3---3-----|-3-1---0---|-----0---------|----------------|
--------------3-|---------3-|-3-------1-----|-1-------1------|
----0-------0---|-----2---2-|-------------2-|-----2-------0--|
----------------|-0-----0---|---2---2---2---|---2-------2----|
----------------|-----------|-0-------------|-0-----0--------|
--3-----3-------|-----------|---------------|----------------|

a me non suona uguale, sarà che li passa veloce forse..
fabio440hz
Musicista embrione
Musicista embrione
 
Messaggi: 3

Accordi tab arpeggio Linkin Park Kansas dust in the wind

Messaggiodi io_sono_leggenda

La TAB è quella, ma non è proprio facilissima. Ecco una registrazione che ho trovato da Guitar Pro 6

Oppure puoi provare una versione un po' più semplice. Prova a sostituire quel passaggio con questo (il suono è più "povero", ma è più facile):
Codice: Seleziona tutto
E |--3--------------3----------|--1--------------1----------|
B |-----------3-----------3----|-----------3-----------3----|
G |--------0-----------0-------|--------2-----------2-------|
D |----------------------------|--0-----------0-------------|
A |----------------------------|----------------------------|
E |--3-----------3-------------|----------------------------|


--0-------------------------|----------------------------||
-----------------1----------|--1--------------1----------||
-----------2-----------2----|-----------2-----------2----||
--------2-----------2-------|--------2-----------2-------||
--0-----------0-------------|--0-----------0-------------||
----------------------------|----------------------------||
Avatar utente
io_sono_leggenda
Musicista affermato
Musicista affermato
 
Messaggi: 980

Accordi tab arpeggio Linkin Park Kansas dust in the wind

Messaggiodi fabio440hz

ah ecco dal video di gp già si capisce meglio...e adesso che so che cè la tab di Guitar Pro 6 me la tiro giù ah ah...grazie mille leggenda!!
fabio440hz
Musicista embrione
Musicista embrione
 
Messaggi: 3


Precedente


Torna a Accordi TAB Riff testo chords - Studiare canzoni


Chi c’è in linea

Visitano il forum: Nessuno e 3 ospiti