Happy hour - Ligabue

Hai trovato gli accordi chords di una canzone ad orecchio e vorresti suggerirla? Oppure vuoi proporre la TAB per chitarra del tuo Riff preferito? il testo? Questo è il forum giusto! Anche per suggerimenti sul ritmo di una canzone. Ricordati di usare la funzione cerca...

Messaggiodi francesca1958

io sono un disastro ancora...ma prova invece tu a dirmi il sito dal quale scarichi i tabulati.

Grazie
francesca1958
Musicista bebè
Musicista bebè
 
Messaggi: 231


Messaggiodi Dufresne

SoundOfDreams ha scritto:sul forum dei guns hanno aperto un topic sull riff iniziale di happy hour.. uguale a quello di sweet child o'mine


hanno ragione...l'ho pensato subito, stesso sound e riff simile...ovviamente molto più bello e completo quello dei guns
Avatar utente
Dufresne
ADMIN: Capo-spiaggia
ADMIN: Capo-spiaggia
 
Messaggi: 6148

Messaggiodi SmackDown!

rufus89 ha scritto:
SmackDown! ha scritto:Wow ma sei tu? Viene una figata!! Mi potresti dare la tua tab? ti prego!!
P.S. non so se sei tu ma quella chitarra li è una fender squier? sembra proprio la mia...


no nel video non sono io... per quanto riguarda la tab io non uso quella del video, ma mi sembra più facile... penso sia questa:

Codice: Seleziona tutto
e --------------------------------------------------------\----------------|
B -------10-------10----13-----12----10--------------10----\----------8~---|
G ----12-------12---------------------------------12--------\x6------------|
D -12-------12-------12-----12----12----12-12--12-----------/--------------|
A ---------------------------------------------------------/---------------|
E --------------------------------------------------------/----------------|


PS. ma le squier come sono? perchè chi le possiede non ne fa una breve recensione nella sezione apposita... potrebbe essere utile!


Ho trovato quel riff e in poco tempo sono riuscito a farlo grazie mille!
Per quanto rigurarda le chitarre io non ne so niente e su una recensione non saprei che scriverci. Anzi, pensa che volevo sapere se eri tu perchè volevo chiedere come sistemare l'amplificatore per ottenere quel suono :D
SmackDown!
Musicista embrione
Musicista embrione
 
Messaggi: 28

Messaggiodi cliffburton87

mah a me non sembra poi molto simile al riff dei Guns...
è tutto diverso,imho...l unica somiglianza che cè è che iniziano tutti e due da RE..ma poi prendon 2 strade diverse!!! :lol:
cliffburton87
Musicista neonato
Musicista neonato
 
Messaggi: 153
Località: Pavia

allora...

Messaggiodi Pappy

--------------------------------------------------------------------
------------10------------10--------13--12--10-------10--------
----------------------------------------------------12-------------
--12--12-------12--12--------12---------------------------------
--------------------------------------------------------------------
--------------------------------------------------------------------
e l'ultimo è cm ha detto l'altro wordt...nn è difficile...
Pappy
Musicista embrione
Musicista embrione
 
Messaggi: 69

Messaggiodi Francus

PROVATE ANKE QUESTO:

|------------3-----5-----------3-----5-----------8---7----5--------------3------|
|-----3------------------3-----------------3-----------------------3-3-3-----3--|
|----------------------------------------------------------------------------------|
|----------------------------------------------------------------------------------|
|----------------------------------------------------------------------------------|
|----------------------------------------------------------------------------------|
NN SONO SICURO DELL ULTIMA PARTE MA DOVREBBE ANDARE BENINO X KI HA INIZIATO DA POCO A SUONARE CM ME!!!!!!!
SE QUALCUNO HA DEI SUGGERIMENTI X L ULTIMO PEZZO DI TAB, PARLI ORA O MAI +!!!!!!!!!!!!!!!!!!

NOTA: SOPRATTUTTO ALL INIZIO DELLA TAB, TENETE 1 PICCOLO BARRE' AL 3° TASTO, VI SARA' TTT + SEMPLICE!!!!!!!!!!!!!!!!

HOLA!!!!
Vivi la vita giorno x giorno!!!!!!!!
Guitar is all my life!!!!
Hola amigos!!!!!!!!

IMPOSSIBLE IS NOTHING
Francus
Musicista bebè
Musicista bebè
 
Messaggi: 235
Località: Bologna

Messaggiodi wladdo75

PS. ma le squier come sono? perchè chi le possiede non ne fa una breve recensione nella sezione apposita... potrebbe essere utile!

A questa domanda di Rufus89 rispondo con piacere perchè per mia fortuna,
ho potuto provare per un giorno interno 3 Fender....una Squire (quella che ho io e che vedi nel mio avatar), una stratocaster ed una telecaster entrambe USA!!!! :P

Ovviamente a livello di esecuzione dei brani vi sono piccolissime differenze magari per quanto riguarda i manici e la distanza delle corde dallo stesso!
A livello di suono il discorso si fa complesso.
Ho capito subito che la squire era la piu bassa di gamma, quando ho provato a fare pezzi movimentati e pieni di barrè a pennate quasi piene....la squire non morde molto ma è stupenda se si suona puliti....
le altre due sono piu cattivelle, e se suoni distorto rendono molto bene (
discorso a parte per gli amplificatori che usi)....certo che la stratocaster è davvero una bella bestiola ed è subito una chitarra "facile" da suonare.
Della telecaster sinceramente non mi sento di dire niente, non mi piace molto ma è solo una questione di estetica...non mi piace la paletta!!!! 8)

Ultimo appunto: Ho provato una les paul...azz ma quanto pesa????????????????????? :twisted:
Consiglio chitarra elettrica + Amplificatore

Ho suonato 2 anni al conservatorio... ma non mi hanno mai aperto!!
wladdo75
Musicista guru
Musicista guru
 
Messaggi: 5830
Località: TORINO

Messaggiodi SoundOfDreams

La les paul è la più pesanteeeeee... quando la comprerò mi verrà la gobba hahahaahh bella la gobba :lol:
SoundOfDreams
Musicista guru
Musicista guru
 
Messaggi: 12638
Località: Villa Literno (Caserta)

Messaggiodi Mines

a me l'intro viene così

http://rapidshare.de/files/27431650/happy_hour.mp3.html

dovrei farlo più veloce?

:?
Mines
Musicista neonato
Musicista neonato
 
Messaggi: 118

Messaggiodi Thelir

io lo suono così:

Codice: Seleziona tutto
Intro

e --------------------------------------------------------\----------------|
B -------10-------10----13-----12----10--------------10----\----------8~---|
G ----12-------12---------------------------------12--------\x6------------|
D -12-------12-------12-----12----12----12-12--12-----------/--------------|
A ---------------------------------------------------------/---------------|
E --------------------------------------------------------/----------------|


ma credo sia meglio la versione di rufus
La StEllA ChE SpLeNdE Il DoPPiO DuRa La MeTà (epigrafe del mitico JiMi HeNdRiX)
Thelir
Musicista embrione
Musicista embrione
 
Messaggi: 37
Località: Luco dei Marsi (Lucoslavia)

Messaggiodi Francus

Vorrei chiedere 1 cosa a rufus.........................cs c entra il passaggio:

B--------10-------
G----7------------

cn il resto del riff???????????????
Nn suona + simile se quel passaggio viene messo dopo

E---------------8---------------7---------
B------------------------------------------(QUI!!)??????????????
G-------7-----------------7---------------

Aiuto!!!!! Servono chiarimenti!!!!!!!!!!!!!!!!!!!!!!!!!!
:?: :?: :?: 8) 8)
Vivi la vita giorno x giorno!!!!!!!!
Guitar is all my life!!!!
Hola amigos!!!!!!!!

IMPOSSIBLE IS NOTHING
Francus
Musicista bebè
Musicista bebè
 
Messaggi: 235
Località: Bologna

Messaggiodi Virtual Gamer

si + veloce 8)
W i DYNAMICA
Virtual Gamer
Musicista embrione
Musicista embrione
 
Messaggi: 2

Messaggiodi Dufresne

Mines ha scritto:a me l'intro viene così

http://rapidshare.de/files/27431650/happy_hour.mp3.html

dovrei farlo più veloce?

:?


ovviamente si più veloce e omogeneo...però bel suono che chitarra è?
Avatar utente
Dufresne
ADMIN: Capo-spiaggia
ADMIN: Capo-spiaggia
 
Messaggi: 6148

Messaggiodi -=FoX=-

mah...sarà il peso della qualità :) :o :twisted: :twisted:
-=FoX=- RuLeZ!!
Avatar utente
-=FoX=-
Musicista embrione
Musicista embrione
 
Messaggi: 11

Messaggiodi Dufresne

-=FoX=- ha scritto:mah...sarà il peso della qualità :) :o :twisted: :twisted:


ehehehe...ci può stare... :lol:
Avatar utente
Dufresne
ADMIN: Capo-spiaggia
ADMIN: Capo-spiaggia
 
Messaggi: 6148

PrecedenteProssimo


Torna a Accordi TAB Riff testo chords - Studiare canzoni


Chi c’è in linea

Visitano il forum: Nessuno e 3 ospiti