Accordi e Tab Arpeggio Gary Jules - Mad World

Hai trovato gli accordi chords di una canzone ad orecchio e vorresti suggerirla? Oppure vuoi proporre la TAB per chitarra del tuo Riff preferito? il testo? Questo è il forum giusto! Anche per suggerimenti sul ritmo di una canzone. Ricordati di usare la funzione cerca...

Accordi e Tab Arpeggio Gary Jules - Mad World

Messaggiodi estyk



MAD WORLD - GARY JULES

bella canzone anche se un pò malinconica!

FAm = 1-3-3-1-1-1
SIb = x-1-3-3-3-1
LAb = 4-6-6-5-4-4
MIb = x-6-8-8-8-6

Intro:
FAm SIb FAm SIb

Couplet:
FAm LAb
All around me are familiar faces
MIb SIb
Worn out places worn out faces---
FAm LAb
Bright and early for the daily races
MIb SIb
Going nowhere Going nowhere---
FAm LAb
Their tears are filling up their glasses
MIb SIb
No expression No expression---
FAm LAb
Hide my head I wanna drown my sorrow
MIb SIb
No tomorrow No tomorrow---

Refrein:
FAm SIb
And I find it kinda funny I find it kinda sad
FAm SIb
The dreams in which I'm dying are the best I've ever had
FAm SIb
I find it hard to tell you I find it hard to take
FAm SIb
When people run in circles it's a very very
FAm SIb
Mad world
FAm SIb
Mad world

Couplet:
Children waiting for the day they feel good
Happy birthday, happy birthday---
And I feel the way that every child should
Sit and listen, sit and listen---
Went to school and I was very nervous
No one knew me, no one knew me---
Hello teacher tell me what's my lesson
Look right trough me, look right trough me---

Refrein:

FAm SIb
Enlarging your world
FAm SIb
Mad world


Chitarra solista...




Codice: Seleziona tutto
Intro

  Em                              A                               
|-----------------------------------------1---------------1------
|-----1----------------------------------------------------------
|-1-------0---1-------0------------------------------------------
|-----------------3-------1-p-0----------------------------------
|---------------------------------1---------------1--------------
|----------------------------------------------------------------

  Em                              A                               
-----------------------------------------1---------------1------|
-----1----------------------------------------------------------|
-1-------0---1-------0---1-------3---------------3--------------|
-----------------3----------------------------------------------|
----------------------------------------------------------------|
----------------------------------------------------------------|


Verse

  Em                              G                               
|----------------------------------------------------------------
|---------------------------------1---1-------1------------------
|-----------------1---1-------------------------------1----------
|----3----3---------------3---3----------------------------------
|----------------------------------------------------------------
|----------------------------------------------------------------
All around me are familiar faces

  D                               A                               
----------------------------------------------------------------
----------------------------------------------------------------
-3---3-------3-------0-----------3---3-------3-------1---0------
-------------------------------------------------------------3--
----------------------------------------------------------------
----------------------------------------------------------------
Worn out places, worn out faces

  Em                              G                               
----------------------------------------------------------------
---------------------------------1---1-------1------------------
-----------------1---1-------------------------------1----------
----3----3---------------3---3----------------------------------
----------------------------------------------------------------
----------------------------------------------------------------
Bright and early for their daily races

  D                               A                               
----------------------------------------------------------------
----------------------------------------------------------------
-3---3-------3-------0-----------3---3-------3-------1---0------
-------------------------------------------------------------3--
----------------------------------------------------------------
----------------------------------------------------------------
Going nowhere, going nowhere

  Em                              G                               
----------------------------------------------------------------
---------------------------------1---1-------1------------------
-----------------1---1-------------------------------1----------
----3----3---------------3---3----------------------------------
----------------------------------------------------------------
----------------------------------------------------------------
Their tears are filling up their glasses

  D                               A                               
----------------------------------------------------------------
----------------------------------------------------------------
-3---3-------3-------0-----------3---3-------3-------1---0------
-------------------------------------------------------------3--
----------------------------------------------------------------
----------------------------------------------------------------
No expression, no expression

  Em                              G                               
----------------------------------------------------------------
---------------------------------1---1-------1------------------
-----------------1---1-------------------------------1----------
----3----3---------------3---3----------------------------------
----------------------------------------------------------------
----------------------------------------------------------------
Hide my head I want to drown my sorrow

  D                               A                               
----------------------------------------------------------------|
----------------------------------------------------------------|
-3---3-------3-------0-----------3---3-------3-------1---0------|
-------------------------------------------------------------3--|
----------------------------------------------------------------|
----------------------------------------------------------------|
No tomorrow, no tomorrow



Chorus

  Em                              A                               
|----------------------------------------------------------------
|-------------------------1---1---3---------------3---3----------
|-----------------1---1---------------3---3---3-----------3---3--
|---------3---3--------------------------------------------------
|----------------------------------------------------------------
|----------------------------------------------------------------
And I find it kinda  funny, I find it kinda sad

  Em                              A                               
-----------------------------------------------------------------
--------------------------1---1---3---------------3---3----------
------------------1---1---------------3---3---3-----------3---3--
--3-------3---3--------------------------------------------------
-----------------------------------------------------------------
-----------------------------------------------------------------
The dreams in which I'm dying are the best I've ever had

  Em                              A                               
-----------------------------------------------------------------
--------------------------1---1---3---------------3---3----------
------------------1---1---------------3---3---3-----------3---3--
--3-------3---3--------------------------------------------------
-----------------------------------------------------------------
-----------------------------------------------------------------
I find it hard to tell you, I find it hard to take

  Em                              A                               
-----------------------------------------------------------------
--------------------------1---1---3---------------3---3----------
------------------1---1---------------3---3---3-----------3---3--
--3-------3---3--------------------------------------------------
-----------------------------------------------------------------
-----------------------------------------------------------------
When people run in circles it's a very very



  Em                              A                               
------------------------------------------1---------------1------
------1----------------------------------------------------------
--1-------0---1-------0------------------------------------------
------------------3-------1-p-0----------------------------------
----------------------------------1---------------1--------------
-----------------------------------------------------------------
MAD world.........................Mad world

  Em                              A                               
-----------------------------------------1---------------1------|
-----1----------------------------------------------------------|
-1-------0---1-------0---1-------3---------------3--------------|
-----------------3----------------------------------------------|
----------------------------------------------------------------|
----------------------------------------------------------------|
MAD world........................Mad world

| /  slide up
| \  slide down
| h  hammer-on
| p  pull-off
| ~  vibrato
| +  harmonic
| x  Mute note
======================================================





anche se la voce nn è sto granchè! :lol:

8) :P
estyk
Musicista embrione
Musicista embrione
 
Messaggi: 12


Messaggiodi Mr. D

Bella :P , c'è un altro topic di questa canzone dei Tears for Fears :x
Mr. D
Ricercatore CDS
Ricercatore CDS
 
Messaggi: 1869
Località: MI

Messaggiodi Federica81

Mi piace molto anche quella rifatta dai Rem...... :P
Federica81
Musicista guru
Musicista guru
 
Messaggi: 2011

Messaggiodi CCCPier

Mi piace molto anche quella rifatta dai Rem...


Sai Fede, credo che ci sia un errore: ho sentito la "versione" attribuita ai REM ed è esattamente quella di Gary Jules. Sarà un errore di qualche utente del mulo.
E trema e vomita la terra, si capovolge il cielo con le stelle e non c'è modo di fuggire... А Я Люблю СССР
CCCPier
Musicista bebè
Musicista bebè
 
Messaggi: 440
Località: Bitonto (BA)

Messaggiodi SoundOfDreams

CCCPier ha scritto:
Mi piace molto anche quella rifatta dai Rem...


Sai Fede, credo che ci sia un errore: ho sentito la "versione" attribuita ai REM ed è esattamente quella di Gary Jules. Sarà un errore di qualche utente del mulo.
Confermo
SoundOfDreams
Musicista guru
Musicista guru
 
Messaggi: 12638
Località: Villa Literno (Caserta)

Accordi e Tab Arpeggio Gary Jules - Mad World

Messaggiodi estyk

SoundOfDreams ha scritto:
CCCPier ha scritto:
Mi piace molto anche quella rifatta dai Rem...


Sai Fede, credo che ci sia un errore: ho sentito la "versione" attribuita ai REM ed è esattamente quella di Gary Jules. Sarà un errore di qualche utente del mulo.
Confermo


fidatevi... è di gary jules! :wink:
estyk
Musicista embrione
Musicista embrione
 
Messaggi: 12

Accordi e Tab Arpeggio Gary Jules - Mad World

Messaggiodi Federica81

Miiiiiiiiii....non riconosco manco la voce di Michael..... :(

Questa è la dimostrazione che quando vi dico che non c'ho proprio orecchio e so una campana non dico caxxate.... :lol: :lol:
Federica81
Musicista guru
Musicista guru
 
Messaggi: 2011

Messaggiodi mauz bitto

Pier, se contraddici di nuovo Fede ti devertebrizzo! :twisted:

CCCPier ha scritto:ho sentito la "versione" attribuita ai REM ed è esattamente quella di Gary Jules. Sarà un errore di qualche utente del mulo


perchè, pier, hai percaso scaricato qlcs truffando la SIAE ???? :lol: :lol: :lol: :lol: :lol: :lol: :lol: :lol: :lol: :lol: :lol: :lol: :lol: :lol: :lol: :lol: :lol:

PS: ci vediamo dopo!
mauz bitto
Musicista guru
Musicista guru
 
Messaggi: 3531
Località: Bitonto (Ba)

Re: Gary Jules - Mad World

Messaggiodi spardus

anche se la voce fa pena ( :-B ) ho fatto anch'io una mia versione

:PPP
il lavoro è onore, l'onore è lavoro. Lavora con onore e onora il tuo lavoro.
spardus
Musicista embrione
Musicista embrione
 
Messaggi: 32

Re: Gary Jules - Mad World

Messaggiodi giugy74

Versione in mi- arpeggio abbastanza semplice con risultato soddisfacente.


Ultima modifica di giugy74 su , modificato 2 volte in totale.
100% analogico!!Il digitale è più complicatoehehhehe!!
Avatar utente
giugy74
Musicista embrione
Musicista embrione
 
Messaggi: 94
Località: da qualche parte in trentino

Re: Gary Jules - Mad World

Messaggiodi Iosonoio

..già te lo dissi .... :SSS; :SSS; :SSS;
Recensione MXR effetto delay

Eppure il vento soffia ancora...
Iosonoio
Musicista guru
Musicista guru
 
Messaggi: 2229
Località: Altissima Valtellina (SO)

Re: Gary Jules - Mad World

Messaggiodi giugy74

Iosonoio ha scritto:..già te lo dissi .... :SSS; :SSS; :SSS;


Una prova per vedere come si fanno i link.....al terzo tentativo ho capito!!

P.S. Se e quando imparerò a fare le tab la metterò...una nota alla volta, non dev'essere proprio impossibile!!
100% analogico!!Il digitale è più complicatoehehhehe!!
Avatar utente
giugy74
Musicista embrione
Musicista embrione
 
Messaggi: 94
Località: da qualche parte in trentino

Re: Gary Jules - Mad World

Messaggiodi giugy74

Ecco la TAB del mio arpeggio in tonalità MI- postato qui sopra....dovrebbe essere giusta, segnalare eventuali errori, GRAZIE.

Codice: Seleziona tutto
Intro
|-----7------------|------------------|-----7-----------|----5-------5------|
|-8-----7--8--5--7-|------------------|-8-----7--8--5-7-|-8-------5-----5---|
|------------------|7--6--------6-----|-----------------|-------------------|
|------------------|---------7-----7--|-----------------|-------------------|
|------------------|------------------|-----------------|-------------------|
|------------------|------------------|-----------------|-------------------|

strofa X4

   MI-                SOL               RE                LA
|-----------------|-----------------|---------2-------|-----------------|
|-----------0-----|---------0-------|-----3-----3---3-|---------2-------|
|-----0---0---0---|-----0-----0---0-|---2---2-----2---|-----2-----2---2-|
|---2---2-------2-|---0---0-----0---|-0---------------|---2---2-----2---|
|-----------------|-----------------|-----------------|-0---------------|
|-0---------------|-1---------------|-----------------|-----------------|


rit X3

   MI-               LA
|-----------------|-----------------|
|-------0-------0-|---------2-------|
|-----0-------0---|-----2-----2---2-|
|---2-------2-----|---2---2-----2---|
|-----------------|-0---------------|
|-0-------0-------|-----------------|


finale ritornello
                   
   MI-               LA
|-----------------|-----------------|
|-------0-------0-|-----------------|
|-----0-------0---|-----------------|
|---2-------2-----|-----------------|
|-----------------|-0---------------|
|-0-------0-------|-----------------|

              mad world                            mad world

|-----7------------|------------------|-----7-----------|----5-------5------|
|-8-----7--8--5--7-|------------------|-8-----7--8--5-7-|-8-------5-----5---|
|------------------|7--6--------6-----|-----------------|-------------------|
|------------------|---------7-----7--|-----------------|-------------------|
|------------------|------------------|-----------------|-------------------|
|------------------|------------------|-----------------|-------------------|


strofa X4

   MI-                SOL               RE                LA
|-----------------|-----------------|---------2-------|-----------------|
|-----------0-----|---------0-------|-----3-----3---3-|---------2-------|
|-----0---0---0---|-----0-----0---0-|---2---2-----2---|-----2-----2---2-|
|---2---2-------2-|---0---0-----0---|-0---------------|---2---2-----2---|
|-----------------|-----------------|-----------------|-0---------------|
|-0---------------|-1---------------|-----------------|-----------------|


rit X3

   MI-               LA
|-----------------|-----------------|
|-------0-------0-|---------2-------|
|-----0-------0---|-----2-----2---2-|
|---2-------2-----|---2---2-----2---|
|-----------------|-0---------------|
|-0-------0-------|-----------------|


finale ritornello
                   
   MI-               LA
|-----------------|-----------------|
|-------0-------0-|-----------------|
|-----0-------0---|-----------------|
|---2-------2-----|-----------------|
|-----------------|-0---------------|
|-0-------0-------|-----------------|

              mad world                            mad world

|-----7------------|------------------|-----7-----------|----5-------5------|
|-8-----7--8--5--7-|------------------|-8-----7--8--5-7-|-8-------5-----5---|
|------------------|7--6--------6-----|-----------------|-------------------|
|------------------|---------7-----7--|-----------------|-------------------|
|------------------|------------------|-----------------|-------------------|
|------------------|------------------|-----------------|-------------------|


              enlarge your world                      mad world

|-----7------------|------------------|-----7-----------|----5-------5------|----------------
|-8-----7--8--5--7-|------------------|-8-----7--8--5-7-|-8-------5-----5---|--5-------------
|------------------|7--6--------6-----|-----------------|-------------------|----------------
|------------------|---------7-----7--|-----------------|-------------------|----------------
|------------------|------------------|-----------------|-------------------|----------------
|------------------|------------------|-----------------|-------------------|--0-------------
 
100% analogico!!Il digitale è più complicatoehehhehe!!
Avatar utente
giugy74
Musicista embrione
Musicista embrione
 
Messaggi: 94
Località: da qualche parte in trentino

Re: Gary Jules - Mad World

Messaggiodi blackmamba_77

avevo già postato nel topic parallelo della versione dei Tears for Fears, invece cercavo proprio questa. Con l'ultima tab postata (penultimo post se non sbaglio) mi trovo abbastanza bene, anche se l'intro non mi viene e non ho capito perchè :S

edit: no non è l'ultimo post ma qualcuno più su ^^
blackmamba_77
Musicista embrione
Musicista embrione
 
Messaggi: 60



Torna a Accordi TAB Riff testo chords - Studiare canzoni


Chi c’è in linea

Visitano il forum: Nessuno e 6 ospiti



croncron