Blues exercises - Esercizi Lick Fraseggi per fare Blues

In questa sezione potete spiegare le vostre difficoltà e chiedere consigli sia tecnici che teorici in generale (non legati ad una canzone in particolare). Oppure proporre esercizi e lezioni per migliorare alla chitarra elettrica, acustica o classica...

Blues exercises - Esercizi Lick Fraseggi per fare Blues

Messaggiodi SoundOfDreams

Questo topic lo dedichiamo al blues ed a chi vuole avvicinarsi per la proma volta a questo genere musicale.

Vi consiglio qualche libro interessante per cominciare e posterò anche qualche tab di qualche esercizio blues

LIBRI SUPER INTERESSANTI:

Chitarra blues. Livello base. Con CD Audio

I cento migliori lick per la chitarra blues

Tecniche per chitarra blues

Di seguito qualche freseggio blues per esercitarsi...

Codice: Seleziona tutto
                                    Blues 1                                     


Guitarra
                                                         
E||--------------------|---------------------------------|
B||----------------12/-|--14--12--10--12-----------------|
G||--------------------|------------------11/-12--9------|
D||--------------------|---------------------------------|
A||--------------------|---------------------------------|
E||--------------------|---------------------------------|


                                                                             
-------------------------------|------------------------|-------------------|
----------5--7--8p-7--5-----5~-|------------8p-7p-5-----|--5~---------------|
----4/-6-----------------6-----|---------------------6--|-------------------|
-------------------------------|------------------------|-------------------|
-------------------------------|------------------------|-------------------|
-------------------------------|------------------------|-------------------|


                                                             
---------------------------------|---------------------------|
--14--12--10--12-----------------|----8p-7p-5-----8----7--5~-|
------------------11h-12--9------|-------------6-------------|
---------------------------------|---------------------------|
---------------------------------|---------------------------|
---------------------------------|---------------------------|


                                                                         
------------------------|-------------------|----------------------------|
------------8p-7p-5-----|--5~---------------|--------7-------------------|
---------------------6--|-------------------|--7h-8-----7h-8-------------|
------------------------|-------------------|-----------------9----------|
------------------------|-------------------|----------------------------|
------------------------|-------------------|----------------------------|


                                                             
----------------7--6--5----------|-----0-----0-----0-----0--|
----8p-7p-5--------------8-7-5---|--5-----3-----2-----1-----|
-------------6-----------------6-|--------------------------|
---------------------------------|--------------------------|
---------------------------------|--------------0-----1-----|
---------------------------------|--0-----4-----------------|


                                                             
-------3--2--------2------|---------------------------------|
--0----3--2--------2--12/-|--14--12--10--12-----------------|
-------3--2--------2------|------------------11/-12--9~-----|
----------1-----1---------|---------------------------------|
--2----------2------------|---------------------------------|
--------------------------|---------------------------------|


                                                                             
-------------------------------|------------------------|-------------------|
----------5--7--8p-7--5-----5~-|------------8p-7p-5-----|--5~---------------|
----4/-6-----------------6-----|---------------------6--|-------------------|
-------------------------------|------------------------|-------------------|
-------------------------------|------------------------|-------------------|
-------------------------------|------------------------|-------------------|


                                                             
---------------------------------|---------------------------|
--14--12--10--12-----------------|----8p-7p-5-----8----7--5~-|
------------------11h-12--9------|-------------6-------------|
---------------------------------|---------------------------|
---------------------------------|---------------------------|
---------------------------------|---------------------------|


                                                                         
------------------------|-------------------|----------------------------|
------------8p-7p-5-----|--5~---------------|--------7-------------------|
---------------------6--|-------------------|--7h-8-----7h-8-------------|
------------------------|-------------------|-----------------9----------|
------------------------|-------------------|----------------------------|
------------------------|-------------------|----------------------------|


                                                             
----------------7--6--5----------|-----0-----0-----0-----0--|
----8p-7p-5--------------8-7-5---|--5~----3-----2-----1-----|
-------------6-----------------6-|--------------------------|
---------------------------------|--------------------------|
---------------------------------|--------------0-----1-----|
---------------------------------|--0~----4-----------------|


                                 
-------8--7----------|----------||
--0----8--7----------|----------||
-------8--7----------|----------||
-------7--6----------|----------||
--2------------------|----------||
---------------------|----------||



solo il primo pezzetto..
Codice: Seleziona tutto
                         Blues 11- Swinging The Blues                           


Guitarra
                                                                         
E||---------------------|--5--5--------------|--5-----------------------|
B||------------------5--|--------------------|-----8--5-----------------|
G||------------5--6-----|--------------------|-----------7--5-----5--7--|
D||---------------------|--------------------|-----------------7--------|
A||---------------------|--------------------|--------------------------|
E||---------------------|--------------------|--------------------------|


                                                                 
---------------------|---------------------|--5--5--------------|
---------------------|------------------5--|--------------------|
--6------------------|------------5--6-----|--------------------|
---------------7--5--|---------------------|--------------------|
---------------------|---------------------|--------------------|
---------------------|---------------------|--------------------|


                                                                         
--8--5--------------------|--------------------|------------------------|
--------8--5--------------|--------------------|--7---------------------|
--------------7-----5--7--|--5h-------6--------|--7--6------------------|
-----------------7--------|--------------------|--------7--5------------|
--------------------------|--------------------|------------------5--6--|
--------------------------|--------------------|------------------------|


                                                                           
----------------------|------------------------|--------------------------|
------------5---------|-------5--7--8--7--5----|--------------------------|
-------7-------5------|-------5--7--8--7--5----|--------6--6--7--7--8--8--|
----------------------|----7-------------------|--7--7--------------------|
--7-------------------|------------------------|--------------------------|
----------------------|------------------------|--------------------------|


                                Bb7A7           
------------------------|-------6--5----------||
---------------------5--|-------6--5----------||
--9----8--7----5--6-----|--9----7--6----------||
-------7--6-------------|-------6--5----------||
-------8--7-------------|-------8--7----------||
------------------------|-------6--5----------||




Codice: Seleziona tutto
                                    Blues 6                                     


Guitarra
                                                               
E||-----------------------------|-----------------------------|
B||--------7--5-----------------|--------7--5-----------------|
G||--------6--4-----------------|--------6--4-----------------|
D||--------7--5--------------2--|--------7--5--------------2--|
A||--0--0--------0--0--3h-4-----|--0--0--------0--0--3h-4-----|
E||-----------------------------|-----------------------------|


                                                           
-----------------------------|-----------------------------|
--------7--5-----------------|--------7--5-----------------|
--------6--4-----------------|--------6--4-----------------|
--------7--5--------------2--|--------7--5--------------2--|
--0--0--------0--0--3h-4-----|--0--0--------0--0--3h-4-----|
-----------------------------|-----------------------------|


                                                           
--------7--5-----------------|--------7--5-----------------|
--------7--5-----------------|--------7--5-----------------|
--------7--5--------------2--|--------7--5--------------2--|
--0--0--------0--0--3h-4-----|--0--0--------0--0--3h-4-----|
-----------------------------|-----------------------------|
-----------------------------|-----------------------------|


                                                           
-----------------------------|-----------------------------|
--------7--5-----------------|--------7--5-----------------|
--------6--4-----------------|--------6--4-----------------|
--------7--5--------------2--|--------7--5--------------2--|
--0--0--------0--0--3h-4-----|--0--0--------0--0--3h-4-----|
-----------------------------|-----------------------------|


                                                           
--------9--7-----------------|--------7--5-----------------|
--------9--7-----------------|--------7--5-----------------|
--------9--7-----------------|--------7--5--------------2--|
-----------------------------|--0--0--------0--0--3h-4-----|
--------------------------2--|-----------------------------|
--0--0--------0--0--3h-4-----|-----------------------------|


                                                               
-----------------------------------|--------------------------|
-----------------------------------|--------------------------|
-----------2--------2--------2-----|--------------------------|
--------5-----5--4-----4--3-----3--|--2--0--1--2--------------|
--0--0-----------------------------|--------------------------|
-----------------------------------|--------------0--0--0--0--|


                                                           
-----------------------------|-----------------------------|
--------7--5-----------------|--------7--5-----------------|
--------6--4-----------------|--------6--4-----------------|
--------7--5--------------2--|--------7--5--------------2--|
--0--0--------0--0--3h-4-----|--0--0--------0--0--3h-4-----|
-----------------------------|-----------------------------|


                                                           
-----------------------------|-----------------------------|
--------7--5-----------------|--------7--5-----------------|
--------6--4-----------------|--------6--4-----------------|
--------7--5--------------2--|--------7--5--------------2--|
--0--0--------0--0--3h-4-----|--0--0--------0--0--3h-4-----|
-----------------------------|-----------------------------|


                                                           
--------7--5-----------------|--------7--5-----------------|
--------7--5-----------------|--------7--5-----------------|
--------7--5--------------2--|--------7--5--------------2--|
--0--0--------0--0--3h-4-----|--0--0--------0--0--3h-4-----|
-----------------------------|-----------------------------|
-----------------------------|-----------------------------|


                                                           
-----------------------------|-----------------------------|
--------7--5-----------------|--------7--5-----------------|
--------6--4-----------------|--------6--4-----------------|
--------7--5--------------2--|--------7--5--------------2--|
--0--0--------0--0--3h-4-----|--0--0--------0--0--3h-4-----|
-----------------------------|-----------------------------|


                                                           
--------9--7-----------------|--------7--5-----------------|
--------9--7-----------------|--------7--5-----------------|
--------9--7-----------------|--------7--5--------------2--|
-----------------------------|--0--0--------0--0--3h-4-----|
--------------------------2--|-----------------------------|
--0--0--------0--0--3h-4-----|-----------------------------|


                                                   
--------------------------|-----0--2--3----------||
--------5-----4-----3-----|--2--------2----------||
--------6-----5-----4-----|--2--------2----------||
--------5-----4-----3-----|--2--------2----------||
--0--0--------------------|-----------0----------||
-----------0-----0-----0--|----------------------||



Codice: Seleziona tutto
                                    Blues 9                                     


Guitarra
                                                                 
E||--------------------------|----8p-5-----5--------------------|
B||--------------------------|----------8-----8p-5--------------|
G||--------------------------|----------------------7p-5-----5--|
D||--2--2--4--2--5--2--4--2--|----------------------------7-----|
A||--0--0--0--0--0--0--0--0--|----------------------------------|
E||--------------------------|----------------------------------|


                                                             
--------------------------|----8p-5-----5--------------------|
--------------------------|----------8-----8p-5--------------|
--------------------------|----------------------7p-5-----5--|
--2--2--4--2--5--2--4--2--|----------------------------7-----|
--0--0--0--0--0--0--0--0--|----------------------------------|
--------------------------|----------------------------------|


                                                             
--------------------------|----8p-5-----5--------------------|
--------------------------|----------8-----8p-5--------------|
--2--2--4--2--5--2--4--2--|----------------------7p-5-----5--|
--0--0--0--0--0--0--0--0--|----------------------------7-----|
--------------------------|----------------------------------|
--------------------------|----------------------------------|


                                                             
--------------------------|----8p-5-----5--------------------|
--------------------------|----------8-----8p-5--------------|
--------------------------|----------------------7p-5-----5--|
--2--2--4--2--5--2--4--2--|----------------------------7-----|
--0--0--0--0--0--0--0--0--|----------------------------------|
--------------------------|----------------------------------|


                                                             
--------------------------|----8p-5-----5--------------------|
--------------------------|----------8-----8p-5--------------|
--------------------------|----------------------7p-5-----5--|
--------------------------|----------------------------7-----|
--2--2--4--2--5--2--4--2--|----------------------------------|
--0--0--0--0--0--0--0--0--|----------------------------------|


                                                                               
--------------------------|-------------------------|--------------------------|
--------5-----4-----3-----|--2-----1--0-------------|--------------------------|
--------6-----5-----4-----|--2-----2--1-------------|--------------------------|
--------5-----4-----3-----|--2-----1--0-------------|--2--2--4--2--5--2--4--2--|
--0--0-----0-----0-----0--|-----0-------------------|--0--0--0--0--0--0--0--0--|
--------------------------|----------------0--0--0--|--------------------------|


                                                             
----8p-5-----5--------------------|--------------------------|
----------8-----8p-5--------------|--------------------------|
----------------------7p-5-----5--|--------------------------|
----------------------------7-----|--2--2--4--2--5--2--4--2--|
----------------------------------|--0--0--0--0--0--0--0--0--|
----------------------------------|--------------------------|


                                                             
----8p-5-----5--------------------|--------------------------|
----------8-----8p-5--------------|--------------------------|
----------------------7p-5-----5--|--2--2--4--2--5--2--4--2--|
----------------------------7-----|--0--0--0--0--0--0--0--0--|
----------------------------------|--------------------------|
----------------------------------|--------------------------|


                                                             
----8p-5-----5--------------------|--------------------------|
----------8-----8p-5--------------|--------------------------|
----------------------7p-5-----5--|--------------------------|
----------------------------7-----|--2--2--4--2--5--2--4--2--|
----------------------------------|--0--0--0--0--0--0--0--0--|
----------------------------------|--------------------------|


                                                             
----8p-5-----5--------------------|--------------------------|
----------8-----8p-5--------------|--------------------------|
----------------------7p-5-----5--|--------------------------|
----------------------------7-----|--------------------------|
----------------------------------|--2--2--4--2--5--2--4--2--|
----------------------------------|--0--0--0--0--0--0--0--0--|


                                                             
----8p-5-----5--------------------|--------------------------|
----------8-----8p-5--------------|--------5-----4-----3-----|
----------------------7p-5-----5--|--------6-----5-----4-----|
----------------------------7-----|--------5-----4-----3-----|
----------------------------------|--0--0-----0-----0-----0--|
----------------------------------|--------------------------|


                       
-----0--2--3----------||
--2--------2----------||
--2--------2----------||
--2--------2----------||
-----------0----------||
----------------------||



Codice: Seleziona tutto
                                 Blues ending                                   


Track 1
                                                                       
E||--------------------------|----------------------|------------------|
B||--------------------------|----------------------|------------------|
G||--------------------------|----------------------|------------------|
D||-----5--------5--------5--|----------------------|------------------|
A||--5-----5--4-----4--3-----|--3--2--------6----5--|------------------|
E||--------------------------|--------------4----3--|------------------|


                   
------------------||
------------------||
------------------||
------------------||
------------------||
------------------||

In questo periodo sto imparando queste,spero vi sian utili.


Aggiornato grazie a Diomadre:
Ho aperto questo topic dove poter mattere quegli esercizi che oltre a far rinforzare le dita, sciogliere i tendini e quant'altro siano anche dei bei riff da poter suonare.
Vi posto il mio primo, è un esercizio blues abbastanza semplice che mi faceva fare il mio maestro
Codice: Seleziona tutto
-----------------3------------------------------------------------------------
-1/3---------------5-3h5p3-----------3-------------------------------------
-------------------------------------------5-33-44-55-6-7----2----2-2/4---
-------4h5---5---------------4/5---5-----------------------5----5-----------
--------------------------------------------------------------------------------
--------------------------------------------------------------------------------

----------------------------3-5-5/7-5-3h5h3-----------3---------------------
--------------1/3--------------------------------3h4h5----5------------------
-5-4-2---2----------------------------------------------------33-44-55-6-7--
--------5---------4h5---5-----------------------------------------------------
--------------------------------------------------------------------------------
--------------------------------------------------------------------------------

-------------------------------------3-------------------
-------------------------------------3-------------------
---2---2-2/4--7p5-----------------4-------------------
-5---5--------------7-5\3p0-------5-------------------
-------------------------------5-3--5-------------------
-------------------------------------3-------------------
Ultima modifica di SoundOfDreams su , modificato 4 volte in totale.
SoundOfDreams
Musicista guru
Musicista guru
 
Messaggi: 12638
Località: Villa Literno (Caserta)


Blues exercises - Esercizi Lick Fraseggi per fare Blues

Messaggiodi Zarty

Grazie!!! le sfruttero' per bene...
Strumentazione:
-Ibanez JS1200
-Epiphone Blues Custom 30
-Altre cosette ;)
Zarty
Musicista in gamba
Musicista in gamba
 
Messaggi: 644
Località: Vicino a Udine


Messaggiodi Nylock

begli esercizi
Nylock
Musicista bebè
Musicista bebè
 
Messaggi: 385
Località: Bari

Blues exercises - Esercizi Lick Fraseggi per fare Blues

Messaggiodi darkside

Grande :)

L'undicesimo pezzo mi ricorda tanto un chitarrista :!:

Indovina CHI AUHAHUAHUAHUA

Guit mi sa che non ha problemi anzi mi dirà qualche approfondimento tecnico -armonico :lol:
darkside
Musicista neonato
Musicista neonato
 
Messaggi: 128
Località: Rocktown

Messaggiodi Guit'EmAll

Vuoi suonare il miglior Blues al mondo?

Suona i brani di questi magnifici Autori:

* Albert Collins - [ 2 tabs ]
* Robert Cray - [ 2 ]
* Steve Cropper - [ 5 ]
* Electric Flag - [ 1 ]
* Rory Gallagher - [ 1 ]
* Buddy Guy - [ 6 ]
* Jeff Healey - [ 1 ]
* John Lee Hooker - [ 2 ]
* Howlin' Wolf - [ 2 ]
* Elmore James - [ 2 ]
* Robert Johnson - [ 2 ]
* Albert King - [ 4 ]
* B.B. King - [ 7 ]
* Freddie King - [ 3 ]
* Jonny Lang - [ 2 ]
* John Mayall's Bluesbreakers - [ 10 ]
* Gary Moore - [ 8 ]
* Otis Rush - [ 7 ]
* T-Bone Walker - [ 2 ]
* Muddy Waters - [ 1 ]



Le Tabs originali puoi trovarle in questo sito
Guit'EmAll
Musicista Provolone
Musicista Provolone
 
Messaggi: 10366
Località: VI PIACEREBBE SAPERLO, EH??? :D

Messaggiodi SePh1r0Th

Potresti postare qualche video o audio su Blues 1 e Blues 11 sono gli unici che non mi escono...grazie
SePh1r0Th
Musicista embrione
Musicista embrione
 
Messaggi: 19

Messaggiodi SoundOfDreams

mmh video in questo momenti nn posso fartelo.. sto malata e nn ho più chiesto la videocamera alla mia amica.. l'ausio potrtei pure fartelo.. dell'1 non te lo faccio tutto perchè è ripetitivo e basta fare a prima parte.. dell'11 devo farlo meglio.. ma entrambi mi riescono un po merduccetti.. fa lo stesso? ^^
SoundOfDreams
Musicista guru
Musicista guru
 
Messaggi: 12638
Località: Villa Literno (Caserta)

Messaggiodi Mauro80

Si... ti vogliamo sentire daidaidai!!!

:P
Mauro80
Musicista guru
Musicista guru
 
Messaggi: 7933
Località: TO

Messaggiodi SoundOfDreams

Mauro.. ne ho messi anche altri merduccetti eh... -.-'' io lo dico per voi :lol:
SoundOfDreams
Musicista guru
Musicista guru
 
Messaggi: 12638
Località: Villa Literno (Caserta)

Blues exercises - Esercizi Lick Fraseggi per fare Blues

Messaggiodi Mauro80

Li abbiamo già sentiti, sai... non ci spaventiamo mica! Forza forza...

:)
Mauro80
Musicista guru
Musicista guru
 
Messaggi: 7933
Località: TO

Messaggiodi wladdo75

SoundOfDreams ha scritto:Mauro.. ne ho messi anche altri merduccetti eh... -.-'' io lo dico per voi :lol:


DAIDAIDAIDAIDAI :idea: :idea: :idea:
Consiglio chitarra elettrica + Amplificatore

Ho suonato 2 anni al conservatorio... ma non mi hanno mai aperto!!
wladdo75
Musicista guru
Musicista guru
 
Messaggi: 5830
Località: TORINO

Messaggiodi SePh1r0Th

Vai tranquilla, se ti va fai pure, mi interessava giusto per sentire come fa il motivo. Non è possibile risalire alla durata delle note dalla tab (o forse sono io che non sono capace :D )
SePh1r0Th
Musicista embrione
Musicista embrione
 
Messaggi: 19

Blues exercises - Esercizi Lick Fraseggi per fare Blues

Messaggiodi Federica81

No tranquillo....non sei tu che non sei capace...non se po fa!! :)
Federica81
Musicista guru
Musicista guru
 
Messaggi: 2011

Blues exercises - Esercizi Lick Fraseggi per fare Blues

Messaggiodi Guit'EmAll

Aspetta, Federicuccia: se ti dimostro che si può fà, che me lo dai un bacetto-bacettino sulla guancia???

:) :) :)
Guit'EmAll
Musicista Provolone
Musicista Provolone
 
Messaggi: 10366
Località: VI PIACEREBBE SAPERLO, EH??? :D

Prossimo


Torna a Lezioni Esercizi e suggerimenti tecnici chitarra


Chi c’è in linea

Visitano il forum: Nessuno e 4 ospiti