Blues exercises - Esercizi Lick Fraseggi per fare Blues

In questa sezione potete spiegare le vostre difficoltà e chiedere consigli sia tecnici che teorici in generale (non legati ad una canzone in particolare). Oppure proporre esercizi e lezioni per migliorare alla chitarra elettrica, acustica o classica...

Re: Blues exercises

Messaggiodi GeneraleV

problema...per i classici "saggi di chitarra" faremo un pezzo blues, o meglio un intermezzo blues...ora, dovrei inventarmi un piccolo "assolo"...della durata di 4 battute....HELP!!!!!!!!!!!! :-((


Questo è il pezzo di sottofondo
----------------------|----------------------|----------------------|
----------------------|----------------------|----------------------|
----------------------|----------------------|----------------------|
----------------------|----------------------|----------------------|
-------5-------5----|-------5----765-------|----------------------|
-55--7---*-55--7-*----|-55--7*----835-*---|------------------|

questo è il mio
----------------------|---------------5------|----------------------|
----------------------|-----------5-7-------|----------------------|
----5-7-----5-7-----|---5-7-5-7---------|----------------------|
-77------77---------|77------------------|----------------------|
----------------------|----------------------|----------------------|
--------*---------*---|------*---------------|----------------------|

avevo pensato a questo...

--55-8-58-58-558-558--55-10--558-5----------|----------------------|
----------------------|--------------------8-5----------------------------|
----------------------|------------------------8-5---0--------------------|
----------------------|----------------------|----------5------------------|
----------------------|----------------------|----------------------|
----------------------|----------------------|----------------------|

spero si capisca....ho usato gli asterischi pei indicare le battute...non conoscendo altri metodi mi ingegno XD che ne dite??????
Se il tuo discorso non vale più del tuo silenzio...Taci
GeneraleV
Musicista embrione
Musicista embrione
 
Messaggi: 11


lick blues

Messaggiodi toni85c

ciaooo mi potete dare dei link di lick blues magari con tabulato e file audio.....vorrei iniziare a suonare blues
toni85c
Musicista embrione
Musicista embrione
 
Messaggi: 52


Re: Blues exercises - Esercizi per fare Blues

Messaggiodi iIbanez87

consiglio le scale blues di guitarist ref, un programma per ios fantastico :--LL
iIbanez87
Musicista embrione
Musicista embrione
 
Messaggi: 16

Re: Blues exercises - Esercizi per fare Blues

Messaggiodi blues4passion

Ciao a tutti, complimenti per gli esercizi!

ciao
Maurizio
blues4passion
Musicista embrione
Musicista embrione
 
Messaggi: 37

Re: Blues exercises - Esercizi per fare Blues

Messaggiodi jimmyjjohn

mmh video in questo momenti nn posso fartelo.. sto malata e nn ho più chiesto la videocamera alla mia amica.. l'ausio potrtei pure fartelo.. dell'1 non te lo faccio tutto perchè è ripetitivo e basta fare a prima parte.. dell'11 devo farlo meglio.. ma entrambi mi riescono un po merduccetti.. fa lo stesso? ^^
jimmyjjohn
Musicista embrione
Musicista embrione
 
Messaggi: 5
Località: UK

Re: Blues exercises - Esercizi Lick Fraseggi per fare Blues

Messaggiodi Bruss

Belli i libri e belli gli esercizi... grazie
Bruss
Musicista bebè
Musicista bebè
 
Messaggi: 375

Precedente


Torna a Lezioni Esercizi e suggerimenti tecnici chitarra


Chi c’è in linea

Visitano il forum: Nessuno e 2 ospiti