Blues exercises - Esercizi Lick Fraseggi per fare Blues

In questa sezione potete spiegare le vostre difficoltà e chiedere consigli sia tecnici che teorici in generale (non legati ad una canzone in particolare). Oppure proporre esercizi e lezioni per migliorare alla chitarra elettrica, acustica o classica...

Messaggiodi SoundOfDreams

si lo uso spesso.. o meglio lo usavo.. da quando faccio lezione mi concentro sulla teoria e sopratutto gli esercizi e non faccio quasi più canzoni..
SoundOfDreams
Musicista guru
Musicista guru
 
Messaggi: 12638
Località: Villa Literno (Caserta)


Blues exercises - Esercizi Lick Fraseggi per fare Blues

Messaggiodi RANGER

OK! IO LO STO VEDENDO IN QUESTO MOMENTO ,VEDIAMO COSA NE RICAVERO'

GRAZIE ANCORA
RANGER
Musicista embrione
Musicista embrione
 
Messaggi: 94
Località: rho (mi)

Messaggiodi SoundOfDreams

vai sul sito di guitar pro per cercare tablature da scaricare per il programma
SoundOfDreams
Musicista guru
Musicista guru
 
Messaggi: 12638
Località: Villa Literno (Caserta)

Messaggiodi Never

a me compare questo... This file has expired. è normale???
"... la vita è come una scatola di cioccolatini... non sai mai quello che ti capita..." Forrest Gump

Imparare accordo do maggiore

Imparare accordo re maggiore
Never
Musicista affermato
Musicista affermato
 
Messaggi: 943
Località: Milano

Messaggiodi SoundOfDreams

si.. perchè dopo qualche settimana i file spirano.. sei arrivato tarduccio.. meglio per ttte :oops:
SoundOfDreams
Musicista guru
Musicista guru
 
Messaggi: 12638
Località: Villa Literno (Caserta)

Messaggiodi Never

carica su youtube con wmv... ci metti una tua foto.. e la musica rimane a vita...
"... la vita è come una scatola di cioccolatini... non sai mai quello che ti capita..." Forrest Gump

Imparare accordo do maggiore

Imparare accordo re maggiore
Never
Musicista affermato
Musicista affermato
 
Messaggi: 943
Località: Milano

Messaggiodi SoundOfDreams

]la frase "rimane a vita"è quella che mi preoccupa.. figuremmmmmeeeerd :lol:
SoundOfDreams
Musicista guru
Musicista guru
 
Messaggi: 12638
Località: Villa Literno (Caserta)

Blues exercises - Esercizi Lick Fraseggi per fare Blues

Messaggiodi Mauro80

Credo proprio che questo sia il topic più adatto per questo post...

...dopo pranzo ho tirato giù alcuni sempilci lick che potrebbero servire a tirarci fuori da eventuali vicoli ciechi in cui si può cadere durante le improvvisazioni. Li ho fatti tutti in tonalità di MI, ma nessuno ci vieta di trasportare gli stessi lick in altre tonalità, ovviamente...

Video di esempio




Il primo è un'introduzione ad una ritmica rock sostenuta... tipico di Angus Young (ad esempio, se eseguito in LA può essere un'ottima introduzione per "highway to hell"... provare per credere):

Codice: Seleziona tutto
e----------12------------------------------------------------------------------
B-------12----12-15fb—15br-12-------------------------------------------------
G-13h14-----------------------14p12-14hbr-12----12h13p12-----------------------
D--------------------------------------------14----------14-12----12/14vvv-----
A--------------------------------------------------------------14--------------
E------------------------------------------------------------------------------



Il secondo ed il terzo sono delle semplici chiusure blues, che possono essere eseguite lentamente (come le ho fatte io), ma anche con tempi elevati... basta un po' di allenamento:

Codice: Seleziona tutto
e---------------------------------------------------4-----3-----2-------0---0--
B--------12-11-10----10---------------10v-----------------------------------0--
G------9----------12----12-9----------8vv---------4---4-3---3-2---2-0h1-----1--
D-9-11-----------------------7-7h8/9--9vv-----------------------------------2-
A---------------------------------------------------------------------------2--
E---------------------------------------------------------------------------0--



L'ultima è una chiusura sulla quale ci si deve allenare un po'. Io l'ho eseguita con pennata alternata, plettrando tutte le note, ma una volta acquisita un po' di scioltezza sarebbe opportuno usare più pull-off possibile, in modo da aumentare la velocità di esecuzione e rendere il tutto più fluido. Ricorda vagamente il piccolo solo che chiude il ritornello in "per colpa di chi" di Zucchero:

Codice: Seleziona tutto
e15-12--------------------------------------------------------------------------
B------15-12-15-12--------------------------------------------------------------
G------------------14-12-15-14-12----12----------------------------------12-----
D---------------------------------14----14-12----12----------------------12-14\2
A---------------------------------------------14----14-12----13-12----------14\2
E---------------------------------------------------------15-------15-12-------0
Mauro80
Musicista guru
Musicista guru
 
Messaggi: 7933
Località: TO

Messaggiodi SoundOfDreams

mitico! Dopo le provo :O
SoundOfDreams
Musicista guru
Musicista guru
 
Messaggi: 12638
Località: Villa Literno (Caserta)

Blues exercises - Esercizi Lick Fraseggi per fare Blues

Messaggiodi Mr. D

Molto belle..grazie Mauro :wink:
Mr. D
Ricercatore CDS
Ricercatore CDS
 
Messaggi: 1869
Località: MI

Messaggiodi stadius1960

Maestro, i miei complimenti! :shock:
La vita è come uno specchio: se tu le sorridi, lei ti sorride.

Consiglio amplificatore chitarra
stadius1960
Musicista guru
Musicista guru
 
Messaggi: 2531
Località: Piacenza

Blues exercises - Esercizi Lick Fraseggi per fare Blues

Messaggiodi Mauro80

Grazie a voi per i commenti ragazzi... sono sempre graditissimi! :)
Mauro80
Musicista guru
Musicista guru
 
Messaggi: 7933
Località: TO

Messaggiodi SoundOfDreams

la prima la faccio più lenta e ho cambiato qualche nota uhm...
SoundOfDreams
Musicista guru
Musicista guru
 
Messaggi: 12638
Località: Villa Literno (Caserta)


Messaggiodi SoundOfDreams

Comincio a scriverti la tab modificata:
Codice: Seleziona tutto
e----------12-12-----------------------------------------------------------------
B-------12----------13p14-13/9v-----12-15b—15-17--12v-------------------------------------------------
G-13h14-------------------------------12-------------------------14p12-14b-12/9v-------12h14p12-----------------------
D-----------------------------------------------------------------------------------------------------------------14-12----------------------
A--------------------------------------------------------------------------------------------------------------------------14-12-------------
E----------------------------------------------------------------------------------------------------------------------------------------15--12v-------

v =vibrato
b=bending
/=slide
SoundOfDreams
Musicista guru
Musicista guru
 
Messaggi: 12638
Località: Villa Literno (Caserta)

PrecedenteProssimo


Torna a Lezioni Esercizi e suggerimenti tecnici chitarra


Chi c’è in linea

Visitano il forum: Nessuno e 3 ospiti