Blues exercises - Esercizi Lick Fraseggi per fare Blues

In questa sezione potete spiegare le vostre difficoltà e chiedere consigli sia tecnici che teorici in generale (non legati ad una canzone in particolare). Oppure proporre esercizi e lezioni per migliorare alla chitarra elettrica, acustica o classica...

Blues exercises - Esercizi Lick Fraseggi per fare Blues

Messaggiodi Mauro80

L'ho provata ma non ho capito bene come interpretarla... vabbè dai ci si becca poi su fb! :)
Mauro80
Musicista guru
Musicista guru
 
Messaggi: 7933
Località: TO


Messaggiodi SoundOfDreams

Ho fatto un casino nel mettere i tastini mi sa..il bello è che ho provato a seguirla e 'n c'ho capito na mazza
SoundOfDreams
Musicista guru
Musicista guru
 
Messaggi: 12638
Località: Villa Literno (Caserta)

Messaggiodi sator90

stupendiiiiiiiiiiiiiiiiiiiiii
L'importante nn è vincere per 1 secondo o per 1 minuto...l'importante è vincere....o meglio l'unica cosa!!!!!!!!!
sator90
Musicista embrione
Musicista embrione
 
Messaggi: 88

Messaggiodi SoundOfDreams

Codice: Seleziona tutto
  E7                     E7                     E7                   
----------------------|----------------------|----------------------|
----------------------|----------------------|----------------------|
----------------------|----------------------|----------------------|
----------------------|----------------------|----------------------|
------------2----4----|------------2----4----|------------2----4----|
--0----4--------------|--0----4--------------|--0----4--------------|


  A7                     A7                     E7                   
----------------------|----------------------|----------------------|
----------------------|----------------------|----------------------|
----------------------|----------------------|----------------------|
------------2----4----|------------2----4----|----------------------|
--0----4--------------|--0----4--------------|------------2----4----|
----------------------|----------------------|--0----4--------------|


  E7                     B7                     A7                   
----------------------|----------------------|
----------------------|----------------------|
----------------------|----------------------|
----------------------|------------4----6----|
------------2----4----|--2/---6--------------|
--0----4--------------|----------------------|


una tipica scala blues
SoundOfDreams
Musicista guru
Musicista guru
 
Messaggi: 12638
Località: Villa Literno (Caserta)

Re: Blues exercises

Messaggiodi Buckethead

-----------------------------------------------------5---8----------- E
--------------------------------------------5---8-------------------- B
----------------------------------5--7--8--------------------------- G
------------------------5---7---------------------------------------- D
------------5--6--7-------------------------------------------------- A
--5--8--------------------------------------------------------------- E

Scala blues
Buckethead
Musicista embrione
Musicista embrione
 
Messaggi: 35

Re: Blues exercises

Messaggiodi Guit'EmAll

Buckethead ha scritto:-----------------------------------------------------5---8----------- E
--------------------------------------------5---8-------------------- B
----------------------------------5--7--8--------------------------- G
------------------------5---7---------------------------------------- D
------------5--6--7-------------------------------------------------- A
--5--8--------------------------------------------------------------- E

Scala blues


Ti rispondo qui -----> http://chitarradaspiaggia.com/forum/vie ... &start=240 ;)

&^^%
Guit'EmAll
Musicista Provolone
Musicista Provolone
 
Messaggi: 10366
Località: VI PIACEREBBE SAPERLO, EH??? :D

Re: Blues exercises

Messaggiodi davioasis

Sapreste dirmi il nome d questo famoso passaggio? Ricordo che ha un nome particolare:

Mi cantino--------5----------4-----------3-------------|
Si---------------------------------------------------------|
Sol-------------5------5---4------4---3-------3----2----|
Con la chitarra si può solo migliorare, non si può tornare indietro. E' come andare in bicicletta, una volta che ci sai andare puoi solo perfezionare l'andatura, non è che un giorno ti svegli e non riesci più a rimanere in equilibrio. (Davide -> me)
davioasis
Musicista embrione
Musicista embrione
 
Messaggi: 26

Re: Blues exercises

Messaggiodi Mauro80

Dovrebbe essere chiusura o turnaround mi pare...
Mauro80
Musicista guru
Musicista guru
 
Messaggi: 7933
Località: TO

Re: Blues exercises

Messaggiodi Kraken

Mauro80 ha scritto:Dovrebbe essere chiusura o turnaround mi pare...

sisi! ho trovato pure qualche altra chiusura interessante
Kraken
Coautore BLOG CDS
Coautore BLOG CDS
 
Messaggi: 1031
Località: catania tra parco della vittoria e viale dei giardini


Re: Blues exercises

Messaggiodi jin89

Fantastico... non sapevo esistessero queste chiusure; danno un sound magnifico. Ma ci sono regole x costruirle o sono frutto dell'improvvisazione di qualche grande musicista?
jin89
Musicista embrione
Musicista embrione
 
Messaggi: 8

[richiesta] Un pò di note blues

Messaggiodi GeneraleV

Ho da poco imparato la scala blues e su quella ci siamo divertiti a costruire qualche ritmo carino ( si può usare carino col blues??). Vorrei passare oltre perchè pur non avendo il blues mi sto appassionando a questo genere, per questo chiedo...qualche canzone per incominciare? o anche qualche giro 8_)
Se il tuo discorso non vale più del tuo silenzio...Taci
GeneraleV
Musicista embrione
Musicista embrione
 
Messaggi: 11

Re: [richiesta] Un pò di note blues

Messaggiodi dilie1992

non conoscendo il tuo livello è un po' difficile,
comunque potresti provare le varie scale di do
http://www.chitarradaspiaggia.com/scale-do-tab-guit.php http://www.chitarradaspiaggia.com/canzonigirodo.htm
e di re ((RE - SIm - MIm - LA7)
"I'm so tired I can't sleep"
Nirvana - Pennyroyal Tea
dilie1992
Musicista bebè
Musicista bebè
 
Messaggi: 201
Località: Pisa

Re: [richiesta] Un pò di note blues

Messaggiodi Omino Spatolino

intanto ti dico subito che questo post probabilmente verrà spostato nella sezione "...pillole e suggerimenti "

Comunque, i giri blues di base sono molto semplici da imparare; sono formati dal primo grado ( tonica, ovvero nota che costituisce la tonalità del pezzo ), dal 4 e dal 5...una sequenza è la seguente:

1 grado (4battute) 4 grado (2battute) 1 grado (2battute) 5 grado (1battuta) 4 grado (1battuta) 1 grado(1battuta) 4 grado(1 battuta)

Prendiamo come esempio un blues in Mi maggiore, perciò il 1 grado sarà l'accordo di Mi, il 4 sarà il La e il 5 sarà il Si. Il tempo nel blues è in 3/4.

MI (4 battute) LA (2battute) MI (2 battute) SI (1 battuta) LA (1 battuta) MI (1 battuta) LA (1 battuta)

questo è un classico "12 bar blues" (12 battute complessive)

Seguendo lo schema principale puoi creare il tuo blues a partire da qualsiasi tonica di riferimento, basta tenere a mente le 7 note (do re mi fa sol la si ), e ricercare i gradi a seconda della tonica che scegliamo.
Ovviamente questo è solo uno dei tanti modi di fare blues, ma per iniziare è più che sufficente. Prova anche a sostituire ogni tanto gli accordi maggiori con accordi di settima, che si prestano moltissimo e sono caratteristici del blues.
Sopra queste basi puoi sbizzarrirti nell'improvvisare con pentatoniche e scale blues.
Se servono altre informazioni o non sono stato abbastanza chiaro sono a disposizione.
Buon lavoro! :SSS
Omino Spatolino
Musicista embrione
Musicista embrione
 
Messaggi: 54
Località: Bologna

Re: [richiesta] Un pò di note blues

Messaggiodi Iosonoio

Omino Spatolino ha scritto:intanto ti dico subito che questo post probabilmente verrà spostato nella sezione "...pillole e suggerimenti "

..detto...fatto! ;)..anzi, unito all'argomento già esistente
Recensione MXR effetto delay

Eppure il vento soffia ancora...
Iosonoio
Musicista guru
Musicista guru
 
Messaggi: 2229
Località: Altissima Valtellina (SO)

PrecedenteProssimo


Torna a Lezioni Esercizi e suggerimenti tecnici chitarra


Chi c’è in linea

Visitano il forum: Nessuno e 5 ospiti