Accordi Tab Ritmo Na tazzulella e cafè - Pino Daniele

Hai trovato gli accordi chords di una canzone ad orecchio e vorresti suggerirla? Oppure vuoi proporre la TAB per chitarra del tuo Riff preferito? il testo? Questo è il forum giusto! Anche per suggerimenti sul ritmo di una canzone. Ricordati di usare la funzione cerca...

Accordi Tab Ritmo Na tazzulella e cafè - Pino Daniele

Messaggiodi Ronny92

Come da titolo... :)

Immagine
Ronny92
Musicista neonato
Musicista neonato
 
Messaggi: 113


Accordi Tab Ritmo Na tazzulella e cafè - Pino Daniele

Messaggiodi Mauro80




...ma non è "'na tazzurella 'e cafè"...? :?

...o quella è un'altra canzone? In ogni caso, non l'ho trovata...
Mauro80
Musicista guru
Musicista guru
 
Messaggi: 7938
Località: TO


Messaggiodi SoundOfDreams

ecco la versione di Pino Daniele
Codice: Seleziona tutto
NA' TAZZULELLA E' CAFE`     -- 
                                                                              P.  Daniele
         LA                  SI7
Na' tazzulella e' cafè e mai niente ce fanno sapè
         MI7
nui ce puzzammo e famme, o sanno tutte quante
    LA
e invece e c'aiut… c'abboffano e' cafè.
         LA                   SI7
Na' tazzulella e' cafè ca sigaretta a coppa pè nun verè
            MI7
che stanno chine e sbaglie, fanno sulo mbruoglie
    LA
s'allisciano se vattano se pigliano o' cafè.
  MI7                          LA
E nui passammo e vuaie e nun putimmo suppurtà
           MI7                  SOL
e chiste invece e ra na mano s'allisciano
                LA
se vattano, se magnano a città
         LA                        SI7
Na' tazzulella e' cafè acconcia a vocca a chi nun pò sapè
       MI7
e nui tirammo annanzi che rulore e' panze
    LA
e invece e c'aiutà c'abboffano e' cafè.
         LA                   SI7
Na' tazzulella e' cafè ca sigaretta a coppa pè nun verè
        MI7                                 LA
s'aizano e' palazze fanno cose e' pazze ci girano

c'avotano ci iempono e' tasse.
SoundOfDreams
Musicista guru
Musicista guru
 
Messaggi: 12644
Località: Villa Literno (Caserta)


Messaggiodi Ronny92

ok grazie sound per gli accordi e la spiegazione :D
Ronny92
Musicista neonato
Musicista neonato
 
Messaggi: 113

Re: Na tazzulella e cafè -Pino Daniele

Messaggiodi Il Giustiziere delle note




Codice: Seleziona tutto
NA TAZZULELLA 'E CAFE' (Pino Daniele) dal live "E SONA MO"
edit by QUIQUO (Marco)  /  http://quiquo.altervista.org
(su Quiquo tutte le diteggiature degli accordi, la lavagna di Archimede per cambiare la tonalità, separare il testo dagli accordi e scegliere il layout di stampa)

INTRO&VERSO:
           LA    LA/MI    LA   LA/MI
|-----------------------------------------|
|-------------2-----2-----2-----2---------|
|-------------2-----2-----2-----2---------|
|-------------2-----2-----2-----2---------|
|----------0-----------0------------------|
|-0--2--4--------0-----------0------------|
  SIm7   SIm7/FA#  SIm7   SIm7/FA#
|-----------------------------------------|
|------3------3------3-------3------------|
|------2------2------2-------2------------|
|------4------4------4-------4------------|
|-2---------------2-----------------------|
|----------2--------------2---------------|
  MI
|-----------------------------------------|
|-----------------------------------------|
|-1-----2-----3-----4---------------------|
|----0-----0-----0-----0------------------|
|-----------------------------------------|
|-0-----2-----3-----4---------------------|

|-----------------------------------------|
|-----------------------------------------|
|-1-----2-----3-----4---------------------|
|----0-----0-----0-----0------------------|
|-----------------------------------------|
|-0-----2-----3-----4---------------------|
LA7add13 SOL7add13 FA7add13
|-----------------------------------------|
|-7----------5-----------3----------------|
|-6----------4-----------2----------------|
|-5----------3-----------1----------------|
|-----------------------------------------|
|-5----------3-----------1----------------|

VERSO: (come INTRO)
         LA  LA/MI LA LA/MI
Na' tazzulella e' café
      SIm7     SIm7/FA#  SIm7   SIm7/FA#
e mai niente ce fanno sapé           
           MI                     MI
nuje ce puzzammo e famme, o sanno tutte quante
   LA7add13   SOL7add13    FA7add13
e invece e c'aiutà c'abboffano e' café.

         LA  LA/MI   LA  LA/MI
Na' tazzulella e' café       
       SIm7         SIm7/FA#  SIm7   SIm7/FA#
ca sigaretta  a coppa pé nun veré
          MI                      MI
che stanno chine e sbaglie, fanno sulo mbruoglie
LA7add13         SOL7add13    FA7add13
s'allisciano se vattano se pigliano o' café.

CHORUS:
  MI
|-----------------------------------------|
|-----------------------------------------|
|-1-----2-----3-----4---------------------|
|----0-----0-----0-----0------------------|
|-----------------------------------------|
|-0-----2-----3-----4---------------------|
E nui passammo e gua-

  MI
|-----------------------------------------|
|-----------------------------------------|
|-1-----2-----3-----4---------------------|
|----0-----0-----0-----0------------------|
|-----------------------------------------|
|-0-----2-----3-----4---------------------|
je e nun pu-
LA
|-----------------------------------------|
|-----------------------------------------|
|-2------2-------2-------2----------------|
|----2-------2-------2-------2------------|
|-0------3-------4-------5----------------|
|-----------------------------------------|
-timmo suppurtà

|-----------------------------------------|
|-----------------------------------------|
|-2------2-------2-------2----------------|
|----2-------2-------2-------2------------|
|-0------3-------4-------5----------------|
|-----------------------------------------|
                          e chiste
  MI
|-----------------------------------------|
|-----------------------------------------|
|-1-----2-----3-----4---------------------|
|----0-----0-----0-----0------------------|
|-----------------------------------------|
|-0-----2-----3-----4---------------------|
invece e dà na
|-----------------------------------------|
|-----------------------------------------|
|-1-----2-----3-----4---------------------|
|----0-----0-----0-----0------------------|
|-----------------------------------------|
|-0-----2-----3-----4---------------------|
mano

LA7add13 SOL7add13 FA7add13
|-----------------------------------------|
|-7----------5-----------3----------------|
|-6----------4-----------2----------------|
|-5----------3-----------1----------------| x2
|-----------------------------------------|
|-5----------3-----------1----------------|
s'allisciano se vattano, se magnano a città.



************************************
Avatar utente
Il Giustiziere delle note
Ricercatore CDS
Ricercatore CDS
 
Messaggi: 605



Torna a Accordi TAB Riff testo chords - Studiare canzoni


Chi c’è in linea

Visitano il forum: Nessuno e 15 ospiti