Accordi tab ritmo solo intro Ogni volta - Vasco Rossi

Hai trovato gli accordi chords di una canzone ad orecchio e vorresti suggerirla? Oppure vuoi proporre la TAB per chitarra del tuo Riff preferito? il testo? Questo è il forum giusto! Anche per suggerimenti sul ritmo di una canzone. Ricordati di usare la funzione cerca...

Accordi tab ritmo solo intro Ogni volta - Vasco Rossi

Messaggiodi Antrhax

Immagine

mi sembra strano onestamente non averla trovata ... al massimo mi chiuderete il topic ;-) ... ma non si puo fare questo torto a Vasco !

Codice: Seleziona tutto
OGNI VOLTA 
Vasco Rossi         

LA  DO#-7  FA#7  RE  RE-  LA  MI7
                                     
     LA
Ogni volta che viene giorno
     DO#-7
ogni volta che ritorno
     FA#7
ogni volta che cammino
     RE
e mi sembra di averti vicino
     RE-
ogni volta che mi guardo intorno
     LA
ogni volta che me ne accorgo
     MI7              LA     MI7
ogni volta che viene giorno
     LA
Ogni volta che mi sveglio
     DO#-7
ogni volta che mi sbaglio
     FA#7
ogni volta che sono sicuro
       RE
e ogni volta che mi sembra solo
     RE-
ogni volta che mi viene in mente
        LA
qualche cosa che non c'entra niente
     MI7
ogni volta.
       LA
E ogni volta che non sono coerente
     DO#-7
ogni volta che non è importante
     FA#7                     RE
ogni volta che qualcuno si preoccupa per me
     RE-
ogni volta che non c'è
        LA
proprio quando la stavo cercando
     MI7
ogni volta, ogni volta quando.
       LA
E ogni volta che non c'entro
     DO#-7
ogni volta che non sono stato
     FA#7
ogni volta che non guardo in faccia niente
       RE
e ogni volta che dopo piango
     RE-
ogni volta che rimango
       LA
con la testa fra le mani
    MI7               LA
e rimando tutto a domani.

Un juke box rovinato e buono da buttare suona sempre una vecchia canzone d'amore per un tipo con tanta moneta e qualcosa da ricordare.
Antrhax
Musicista bebè
Musicista bebè
 
Messaggi: 434
Località: Ancona


Messaggiodi Mauro80

In effetti non l'ho trovata!

...aggiungo al canzoniere...
Mauro80
Musicista guru
Musicista guru
 
Messaggi: 7941
Località: TO

Accordi tab ritmo solo intro Ogni volta - Vasco Rossi

Messaggiodi Guit'EmAll

bellissima
Guit'EmAll
Musicista Provolone
Musicista Provolone
 
Messaggi: 10372
Località: VI PIACEREBBE SAPERLO, EH??? :D

Messaggiodi cobramax

ragazzi l'intro sapete come si fa???
Sei tossico sempre di cose che non sono tue....
cobramax
Musicista neonato
Musicista neonato
 
Messaggi: 152
Località: Taranto

Accordi tab ritmo solo intro Ogni volta - Vasco Rossi

Messaggiodi mauz bitto

ecco le tab:
Codice: Seleziona tutto
SONG : Ogni Volta
AUTHOR : V. Rossi
SOLO BY : Solieri (I think!)

   A                           C#m
e|-9-10--12---10----9h10p9-----9~--9--10--12---10---9h10p9------------|
B|--------------------------12--------------------------------12------|
G|--------------------------------------------------------------------|
D|--------------------------------------------------------------------|
A|--------------------------------------------------------------------|
E|--------------------------------------------------------------------|

  F#7                                 D               Dm
E|-9~-9--10--12---10---9---10p9--------------------------------5--7---|
B|-------------------------------12---7~~-------------6~--6/7---------|
G|--------------------------------------------------------------------|
D|--------------------------------------------------------------------|
A|--------------------------------------------------------------------|
E|--------------------------------------------------------------------|

  Dm               A                        E7              A
E|-7/9----7\5---------------------------------------------------------|
B|-----------------5~------------------9h10--9~~---/7---5---5---------|
G|--------------------------------------------------------------------|
D|--------------------------------------------------------------------|
A|--------------------------------------------------------------------|
E|--------------------------------------------------------------------|
   A
E|------------------7---9~-|   <--- And from here on it starts from the
B|----------7-9-10---------|        beginning.
G|---6-7-9-----------------|
D|-9-----------------------|
A|-------------------------|
E|-------------------------|

mauz bitto
Musicista guru
Musicista guru
 
Messaggi: 3534
Località: Bitonto (Ba)

Messaggiodi Carlina

scusate...sono una novella del forum oltre che della chitarra..volevo chiedervi dato che questa versione mi sembrà un pò difficile se magari qualcuno ne conosce un'altra...grazie mille e complimenti per il sito!
senza musica, la vita sarebbe un errore (Nietzsche)
Carlina
Musicista embrione
Musicista embrione
 
Messaggi: 13

Accordi tab ritmo solo intro Ogni volta - Vasco Rossi

Messaggiodi mauz bitto

perchè ti sembra difficile?
ci sono gli accordi con il barrè?? beh se è per questo motivo, è meglio se
cominci ad imparare questi accordi, perchè non ne potrai fare a meno.
cmq se ce la faccio dopo vedo se con un capotasto o alzando/abbassando la
tonalità migliora la faccenda :wink:

mauz bitto
Musicista guru
Musicista guru
 
Messaggi: 3534
Località: Bitonto (Ba)

Messaggiodi Il Giustiziere delle note

l'arpeggio dell'acustica non è difficile..
Codice: Seleziona tutto
OGNI VOLTA (Vasco Rossi)
edit by QUIQUO (Marco)  /  http://quiquo.altervista.org
(su Quiquo tutte le diteggiature degli accordi, la lavagna di Archimede per cambiare la tonalità, separare il testo dagli accordi e scegliere il layout di stampa)

INTRO:
   LA         DO#m       FA#7      REsus2
e--------0----------0-----------0---------0----------0----
B------2------------5---------2---------3----------3------
G----2------------6---------3---------2----------2--------
D---------------6---------4---------0----------0----------
A--0----------4-------------------------------------------
E---------------------------------------------------------
    LA           MI
e-------------------------0--------------7--
B-------2h3-2-----------0-------------------
G---------------------1------------2-/-7----
D----2--------------------------------------
A--0----------------------------------------
E---------------3/4-0-----------------------

Ogni [LA] volta che viene giorno
ogni [DO#m] volta che ritorno
ogni [FA#7] volta che cammino
e mi [REsus2] sembra di averti vicino
ogni [REsus2] volta che mi guardo intorno
ogni [LA] volta che non me ne accorgo
ogni [MI] volta.... che viene giorno [LA]

Ogni volta che mi sveglio
ogni volta che mi sbaglio
ogni volta che sono sicuro
e ogni volta che mi sento solo
ogni volta che mi viene in mente
qualche cosa che non c'entra niente
ogni volta...

Ogni volta che non sono coerente
ogni volta che non e' importante
ogni volta che qualcuno si preoccupa per me
ogni volta che non c'e'
proprio quando la stavo cercando
ogni volta.... ogni volta [MI] quando

(solo STRUMENTALE)(x2)

Ogni volta che non c'entro
ogni volta che non sono stato
ogni volta che non guardo in faccia niente
e ogni volta poi dopo piango
ogni volta che rimango
con la testa tra le mani
e rimando..... il mio domani

(solo STRUMENTALE)(x2)

***********
[DO#m]=x46650
[FA#7]=xx4320
[REsus2]=xx0230

Avatar utente
Il Giustiziere delle note
Ricercatore CDS
Ricercatore CDS
 
Messaggi: 605

Messaggiodi Evangelizzatore

Non mi torna 3/4-0 nell'intro....
Evangelizzatore
Musicista embrione
Musicista embrione
 
Messaggi: 52

Messaggiodi Il Giustiziere delle note

Non mi torna 3/4-0 nell'intro....

ascolta il basso nella versione live (da REWIND credo)....
Avatar utente
Il Giustiziere delle note
Ricercatore CDS
Ricercatore CDS
 
Messaggi: 605

Messaggiodi valerio_vanni

Il Giustiziere delle note ha scritto:
Codice: Seleziona tutto
Ogni [LA] volta che viene giorno
ogni [DO#m] volta che ritorno
ogni [FA#7] volta che cammino
e mi [REsus2] sembra di averti vicino
ogni [REsus2] volta che mi guardo intorno
ogni [LA] volta che non me ne accorgo
ogni [MI] volta.... che viene giorno [LA]


A me non tornano molto le due frasi tutte con REsus2: io l'ho sempre trovate la prima con il maggiore e la seconda con il minore e mi sembra che suonino meglio.
valerio_vanni
Musicista in gamba
Musicista in gamba
 
Messaggi: 675

Messaggiodi Evangelizzatore

valerio_vanni ha scritto:
Il Giustiziere delle note ha scritto:
Codice: Seleziona tutto
Ogni [LA] volta che viene giorno
ogni [DO#m] volta che ritorno
ogni [FA#7] volta che cammino
e mi [REsus2] sembra di averti vicino
ogni [REsus2] volta che mi guardo intorno
ogni [LA] volta che non me ne accorgo
ogni [MI] volta.... che viene giorno [LA]


A me non tornano molto le due frasi tutte con REsus2: io l'ho sempre trovate la prima con il maggiore e la seconda con il minore e mi sembra che suonino meglio.


Questo sicuro; a me suona bene anche con un REsus2 e un REmin.
Evangelizzatore
Musicista embrione
Musicista embrione
 
Messaggi: 52

Messaggiodi Evangelizzatore

Ma poi; la tab è quella dell'intro.... ma poi anche durante la canzone Solieri la arpeggia... ad orecchio sembra simile l'arpeggio all'intro.... è vero o no?
Evangelizzatore
Musicista embrione
Musicista embrione
 
Messaggi: 52

Messaggiodi vascoliga

sisi l'arpeggio all'interno della canzone e cm quello dell'intro..forse ogni tanto varia ma lo puoi fa benissimo cosi...poi x l'assolo e1 po 1 problema..qua nessuno di voi l'ha trovato?!?
vascoliga
Musicista embrione
Musicista embrione
 
Messaggi: 21

Accordi tab ritmo solo intro Ogni volta - Vasco Rossi

Messaggiodi mauz bitto

se vedi l'ho riportato io qualche post più sopra :wink:
mauz bitto
Musicista guru
Musicista guru
 
Messaggi: 3534
Località: Bitonto (Ba)

Prossimo


Torna a Accordi TAB Riff testo chords - Studiare canzoni


Chi c’è in linea

Visitano il forum: Nessuno e 6 ospiti