Accordi Tab Intro Ritmo "Pigro" - Pino Daniele

Hai trovato gli accordi chords di una canzone ad orecchio e vorresti suggerirla? Oppure vuoi proporre la TAB per chitarra del tuo Riff preferito? il testo? Questo è il forum giusto! Anche per suggerimenti sul ritmo di una canzone. Ricordati di usare la funzione cerca...

Accordi Tab Intro Ritmo "Pigro" - Pino Daniele

Messaggiodi Guit'EmAll

Videoclip




Codice: Seleziona tutto



========
From: "||Stef@no||"
Date: Sun, 25 Apr 2004 19:53:17 GMT
--------

Mi date una mano a sistemare questa TAB.

Sicuramente Lucariello avrà fatto una sua trascrizione che può perfezionare
la mia.

Ciao a tutti

||Stef@no||



----- "PIGRO" ----- Pino Daniele

Intro:


|---------------------------------|
|----3--------3-----2--------2----|
|----0--------0-----0--------0----|
|----2--------2-----2--------2----|
|----------2-----0-----0----------|
|-0-----0-----------------0-----0-|

|--------------------------------|
|-----3--------3-----2--------2--|
|-----0--------0-----0--------0--|
|-----2--------2-----2--------2--|
|-----------2-----0-----0--------|
|--0-----0-----------------0-----|


Strofa:

|--------------------------------------------------|
|-----3--------3-----3--3-----2--------2-----2--2--|
|-----0--------0-----0--0-----0--------0-----0--0--|
|-----2--------2-----2--2-----2--------2-----2--2--|
|-----------------2--------0-----------------------|
|--0--------------------------------------0--------|
  Resto                                      resto


|--------------------------------------------------|
|-----3------3-----3---3-------2-----2-----2---2---|
|-----0------0-----0---0-------0-----0-----0---0---|
|-----2------2-----2---2-------2-----2-----2---2---|
|---------------2-----------0----------------------|
|--0------------------------------------0----------|
a letto                                    mentre



|--------------------------------------------------|
|------0---0--------------------------------5---5--|
|------0---0------5---5--------7---7--------5---5--|
|------2---2------5---5--------7---7--------6---6--|
|---3-----------------------------------5----------|
|--------------5-----------7-----------------------|
   sento       già        l'odore         del



|--------------------------------------------------|
|-----2-----2-----2-----2-----2-----2-----2-----2--|
|-----1-----1-----1-----1-----0-----0-----0-----0--|
|-----2-----2-----2-----2-----2-----2-----2-----2--|
|--0-----------------------1-----------------------|
|--------------0-----------------------0-----------|
  caffè                                 Ho tante



|-----2----2-----2---2----------------------------||
|-----2----2-----2---2--------3-------------------||
|-----2----2-----2---2--------2-------------------||
|--0--------------------------4-------------------||
|-------------0---------------2-------------------||
|-------------------------------------------------||



Ritornello:


|--------------------------------------------------|
|-----3--------3-----3--3-----2--------2-----2--2--|
|-----0--------0-----0--0-----0--------0-----0--0--|
|-----2--------2-----2--2-----2--------2-----2--2--|
|-----------------2--------0-----------------------|
|--0--------------------------------------0--------|
     Quello che la gente dice


|--------------------------------------------------|
|-----3------3-----3---3-------2-----2-----2---2---|
|-----0------0-----0---0-------0-----0-----0---0---|
|-----2------2-----2---2-------2-----2-----2---2---|
|---------------2-----------0----------------------|
|--0------------------------------------0----------|
  Adesso    non mi        piace


|--------------------------------------------------|
|-----3--------3-----3--3-----2--------2-----2--2--|
|-----0--------0-----0--0-----0--------0-----0--0--|
|-----2--------2-----2--2-----2--------2-----2--2--|
|-----------------2--------0-----------------------|
|--0--------------------------------------0--------|
  Quello che il mondo     produce


|--------------------------------------------------|
|-----3--------3-----3--3-----2--------2-----2--2--|
|-----0--------0-----0--0-----0--------0-----0--0--|
|-----2--------2-----2--2-----2--------2-----2--2--|
|-----------------2--------0-----------------------|
|--0--------------------------------------0--------|
      Non,  non è mai       pace


|--------------------------------------------------|
|-----6-------6-----6---6-----3-------3-----3---3--|
|-----5-------5-----5---5-----3-------3-----3---3--|
|-----7-------7-----7---7-----3-------3-----3---3--|
|--5-------------------------------------5---------|
|----------------5---------3-----------------------|
  Ma ho bisogno di te   ho un maledetto bisogno


|-----0-----0-----0---0----------------------------|
|-----1-----1-----1---1-------5------5-----5---5---|
|-----0-----0-----0---0-------5------5-----5---5---|
|--------------2--------------5------5-----5---5---|
|--3------------------------------------7----------|
|--------------------------5-----------------------|
di te               per riempire il mio cuore


|--------------------------------------------------|
|--------3-----3-----3---3-----3------3-----3---3--|
|--------2-----2-----2---2-----2------2-----2---2--|
|--------3-----3-----3---3-----3------3-----3---3--|
|---1-----------------------1----------------------|
|-----------------1----------------------1---------|
  cuore                    per mettermi in


|--------------------------------------------------|
|------2-----2-----2---2--------2----2-----2---2---|
|------1-----1-----1---1--------1----1-----1---1---|
|------2-----2-----2---2--------2----2-----2---2---|
|---0------------------------0---------------------|
|---------------0-----------------------0----------|
  discussione                            si


|--------------------------------------------------|
|-----6----6-----6----6------3-----3-----3-----3---|
|-----5----5-----5----5------3-----3-----3-----3---|
|-----7----7-----7----7------3-----3-----3-----3---|
|--5----------------------------------5------------|
|-------------5-----------3------------------------|
   ho bisogno di te     ho un maledetto bisogno


|------0-----0-----0----0--------------------------|
|------1-----1-----1----1-----5-----5-----5----5---|
|------0-----0-----0----0-----5-----5-----5----5---|
|---------------2-------------5-----5-----5----5---|
|---3----------------------------------7-----------|
|--------------------------5-----------------------|
    di te             per sentirmi sveglio

|-------------------------------------------------|
|------3-----3-------3---3-----3-----3-----3---3--|
|------2-----2-------2---2-----2-----2-----2---2--|
|------3-----3-------3---3-----3-----3-----3---3--|
|---1-----------------------1---------------------|
|-----------------1---------------------1---------|
           per dire che forse è

|-------------------------------------------------|
|------2-----2-----2---2-----2-------2-----2---2--|
|------1-----1-----1---1-----1-------1-----1---1--|
|------2-----2-----2---2-----2-------2-----2---2--|
|---0---------------------0-----------------------|
|---------------0-----------------------0---------|
  meglio                     avere tante

|-----2-----2-----2--2------------------||
|-----2-----2-----2--2----------3-------||
|-----2-----2-----2--2----------2-------||
|--0----------------------------4-------||
|--------------0----------------2-------||
|---------------------------------------||
  abitudini che diventare pigro

Trascrizione ||Stef@no||




========
From: "Luca\(riello\)"
Date: Tue, 27 Apr 2004 09:15:55 GMT
--------

:) Non l'avevo fatta (la canzone non mi piace granché)...
cmq ho provato a cambiare semplicemente un accordo e un passagggio, vedi
come suonano:

[CUT]
>    Lam                    Si dim           Mi5+
> |-------------------------------------------0---0--|
> |------1---1------1---1--------3---3--------1---1--|
> |------0---0------0---0--------2---2--------1---1--|
> |------2---2------2---2--------3---3--------2---2--|
> |---0----------------------2----------------2---2--|
> |--------------0-------------------------0---------|
>    sento       già        l'odore         del
>
>
>
>    La7+
>   caffé

E lo stesso passaggio lo si può fare anche nel ritornello,
(dove credo ti sei dimenticato un La7):


>
[CUT]  Sib7+                  Si dim       Mi5+
> |------------------------------0------0-----1---1--|
> |--------3-----3-----3---3-----3------3-----1---1--|
> |--------2-----2-----2---2-----2------2-----2---2--|
> |--------3-----3-----3---3-----3------3-----2---2--|
> |---1-----------------------2----------------------|
> |-----------------1----------------------0---------|
>   cuore                    per mettermi in
>
>      La7+                    La7
> |--------------------------------------------------|
> |------2-----2-----2---2--------2----2-----2---2---|
> |------1-----1-----1---1--------0----0-----0---0---|
> |------2-----2-----2---2--------2----2-----2---2---|
> |---0------------------------0---------------------|
> |---------------0-----------------------0----------|
>   discussione                            si



Codice: Seleziona tutto

Text s notami k písni:

----------------------------------------------------------------------------------
----- "PIGRO" ----- Pino Daniele           Accordi by M/Zacca mzh@libero.it
----------------------------------------------------------------------------------

Em7  A7  Em7  A7


Em7  A7         Em7   A7                        Am7         Bm7   E    A7+
Resto, resto a letto         mentre sento gia' l'odore del caffe'
          D7+                              Bm7
ho tante cose da fare         ma non mi importa niente

Em7      A7    Em7     A7

Pigro, come un gatto e di piu'      cerco un'idea per dipingere
la mia coscienza sociale      o il buco dell'ozono

Em7      A7    Em7     A7

        Em7          A7                 Em7           A7
Quello che la gente dice      adesso non mi piace
        Em7          A7                 Em7         A7
quello che il mondo produce, no...      non e' mai pace


    Dm                                  Gm7                Am7
Ho bisogno di te         ho un maledetto bisogno di te
                     Bb7+                      E           A7+
per riempire il mio cuore...      per mettermi in discussione si',
A7                  Dm                  Gm7                Am7
Ogni volta che ho bisogno di te      ho un maledetto bisogno di te
                Bb7+                           E           A7+
per sentirmi sveglio         per dire che forse e' meglio
A7              F#m                           Bm
Avere tante abitudini         che diventare pigro,

pigro...



Presto, e' gia' tardi           e ti guardo mentre bevi il mio caffe'
il tempo non ti perdona         non ti perdona niente

Ma ho bisogno di te         ho un maledetto bisogno di te
per riempire il mio cuore...      per mettermi in discussione si'
Ogni volta che ho bisogno di te      ho un maledetto bisogno di te
per sentirmi sveglio         per dire che forse e' meglio
avere tante abitudini         che diventare pigro

Em7   A7    (ad lib)

Quello che la gente dice      adesso non mi piace
quello che il mondo produce      non e' mai pace
non e' mai pace            non e' mai pace
Uh uh uh uh            uh uh uh uh uh uh
Di una ce chi uonda bon da      bon da du bon da
un da un da eh            un da un da eh
un da un da eh            un da un da eh
un da un da eh

====================================================================
Guit'EmAll
Musicista Provolone
Musicista Provolone
 
Messaggi: 10366
Località: VI PIACEREBBE SAPERLO, EH??? :D


Re: Accordi Tab Intro Ritmo "Pigro" - Pino Daniele

Messaggiodi Dufresne

Bravissima, peccato qualche stecca :-DD


Avatar utente
Dufresne
ADMIN: Capo-spiaggia
ADMIN: Capo-spiaggia
 
Messaggi: 6144



Torna a Accordi TAB Riff testo chords - Studiare canzoni


Chi c’è in linea

Visitano il forum: Nessuno e 2 ospiti