Accordi Tab Arpeggio Intro Pino Daniele - Tempo di cambiare

Hai trovato gli accordi chords di una canzone ad orecchio e vorresti suggerirla? Oppure vuoi proporre la TAB per chitarra del tuo Riff preferito? il testo? Questo è il forum giusto! Anche per suggerimenti sul ritmo di una canzone. Ricordati di usare la funzione cerca...

Accordi Tab Arpeggio Intro Pino Daniele - Tempo di cambiare

Messaggiodi noice

video ->




Codice: Seleziona tutto
INTRO: Do9  Do9/Mib  Rem7   Sib9

Do9                       Do9/Mib
|---------------------------------------------------|
|-------------3------------------------3------------|
|-------5-----------5------------5---------5--------|
|----5----(5)----------5-------5---(5)--------5-----|
|-3-------------------------6-----------------------|
|---------------------------------------------------|
Rem7                      Sib9
|---------------------------------------------------|
|-------------3------------------------3------------|
|-------5-----------5-------------5-----------------|
|----3-----------------3-------3-----------5--------|
|-5-------------------------------------------3-----|
|---------------------------6-----------------------|


         Do9          Do9/Mib
C'è una strega dentro l'anima
       Rem7          Sib9
Che mi porta dritto a te
         Do9           Do9/Mib         Rem7    Sib
La sua magia e la sua pratica fanno di me
     Do9          Do9/Mib
Una preda da stanare
       Rem7          Sib9
Senza scampo e si va bene
      Do9                Do9/Mib
Non sarà la fine del mondo
         Rem7    Sib
Se ho toccato il fondo

               Do9     Do9/Mib
I need a new direction
               Rem7   Sib9
I need a new direction
C'è una strega dentro l'anima
Che  ogni giorno mangia un pò di me
Ed è fuori da ogni logica ma forse c'è
Un messaggio da capire, c'è una pista da seguire
Noi facciamo tutti parte della stessa sorte
I need a new direction
I need a new direction

Do                  Do7+                    Do7
    E' tempo di cambiare di non lasciarsi andare
             Fa
Di vivere la vita cosi
       Fam               Do
Come un angelo o un assassino
            Rem      Fa
Ognuno nel suo passato
Ognuno col suo destino

|--------------------------------------------------|
|-------4--6--6^8-----9--8--6--4--6----8--6---4--3-|
|-5--7---------------------------------------------|
|--------------------------------------------------|
|--------------------------------------------------|
|--------------------------------------------------|
*****************
(alza di un tono)
*****************

|-------------3-3^5-5----6--5-----3---5--3---------|
|-3--3--5--6-------------------6-----------6--5--3-|
|--------------------------------------------------|
|--------------------------------------------------|
|--------------------------------------------------|
|--------------------------------------------------|

Re9                     Re9/Fa
|------------0-----------------------0-------------|
|-------3--------3--------------3---------3--------|
|----2---------------2-------2---------------2-----|
|-0-----------------------3------------------------|
|--------------------------------------------------|
|--------------------------------------------------|
Mim7                    Do9
|------------0-----------------------0-------------|
|-------3--------3--------------3---------3--------|
|----0---------------2-------0---------------0-----|
|-2------------------------------------------------|
|-------------------------3------------------------|
|--------------------------------------------------|

          Re9          Re9/Fa
C'è una strega dentro l'anima
         Mim7              Do9
Che ogni notte mi parla di te
Nel suo libro c'è una formula per me
Che ho bisogno del tuo amore

|-6---5---3---1---3----|
|-3--------------------|
|-----5---3---2---3----|
|----------------------|   2a chitarra
|----------------------|
|----------------------|


Ho bisogno di star bene


|-5---3---1---0---1----|
|----------------------|
|-5---3---2---0---2----|
|----------------------|    2a chitarra
|----------------------|
|----------------------|

Io non voglio indifferenza

|-3---1---0-------0----|
|-------------3--------|
|-3---2---0-------0----|
|-------------3--------|     2a chitarra
|----------------------|
|----------------------|

Voglio più coscienza
I need a new direction
I need a new direction

Re                  Re7+                    Re7
    E' tempo di cambiare di non lasciarsi andare
             Sol
Di vivere la vita cosi
       Solm              Re
Come un angelo o un assassino
       Mim
Ognuno nel suo mondo
***********************
(diminuisce di un tono)
***********************
Do                  Do7+                    Do7
    E' tempo di cambiare di non lasciarsi andare
             Fa
Di vivere la vita cosi
       Fam               Do
Come un angelo o un assassino
            Rem      Fa
Ognuno nel suo passato
Ognuno col suo destino

|--------------------------------------------------|
|-------4--6--6^8-----9--8--6--4--6----8--6---4--3-|
|-5--7---------------------------------------------|
|--------------------------------------------------|
|--------------------------------------------------|
|--------------------------------------------------|

|--------------------------------------------------|
|-4---6--4--3^4^3--1--3----4--3--1-----------------|
|-----------------------------------3--3^5---------|
|--------------------------------------------------|
|--------------------------------------------------|
|--------------------------------------------------|


Consiglio di fare gli accordi come sono riportate sulla tab... altrimenti
non viene bene.
Nella prima parte si deve tenere fisso il barrè al terzo tasto.
"i plettri sono fatti per essere persi, dimenticati, fregati agli amici, scambiati come fiches del casinò.. lavati con i jeans.." [cit. Mario]

Guida ai plettri per chitarra
Avatar utente
noice
Ricercatore CDS
Ricercatore CDS
 
Messaggi: 1718
Località: Ischia



Torna a Accordi TAB Riff testo chords - Studiare canzoni


Chi c’è in linea

Visitano il forum: Nessuno e 14 ospiti