Accordi Tab Intro Solo Je so pazzo - Pino Daniele

Hai trovato gli accordi chords di una canzone ad orecchio e vorresti suggerirla? Oppure vuoi proporre la TAB per chitarra del tuo Riff preferito? il testo? Questo è il forum giusto! Anche per suggerimenti sul ritmo di una canzone. Ricordati di usare la funzione cerca...

Accordi Tab Intro Solo Je so pazzo - Pino Daniele

Messaggiodi Gandar




Codice: Seleziona tutto
Intro:
                Mim                        DO7add7+             
Mi ||---------------------------------------------------|
Si ||--3~---------------------------------------------0-|
Sol||-------0---2---3---2---0------0---2---3---2---0----|
Re ||--------------------------2------------------------|
La ||---------------------------------------------------|
Mi ||---------------------------------------------------|
                   SI7
|------------------------------------------------------------||                                                                         
|------------------------------------------------------------||
|-0-----------------------0---2---3---2----------------------||
|----------------------2-------------------4---3---2---0-----||
|------------------------------------------------------------||
|------------------------------------------------------------||


ragazzi ma vi sembra esatta??? a me suona in modo strano... come se ci mancasse qualcosa... mi date una mano??
Gandar
Musicista embrione
Musicista embrione
 
Messaggi: 24


Messaggiodi Kraken




gli accordi sono MIm Do SI7 in ordine....col MIm devi fare un gioco particolare all'inizio ma nun me lo ricordo bene....
Kraken
Coautore BLOG CDS
Coautore BLOG CDS
 
Messaggi: 1031
Località: catania tra parco della vittoria e viale dei giardini

Accordi Tab Intro Solo Je so pazzo - Pino Daniele

Messaggiodi noice

la metto completa:
Codice: Seleziona tutto
~ = Bending

  MIm
e||---------------------------------------------------------------------|
B||---------------------------------------------------------------------|
G||---------------------------------------------------------------------|
D||---------------------------------------------------------------------|
A||---------------------------------------------------------------------|
E||---------------------------------------------------------------------|


  DO7add7+
|----------------------------------------------------------------------|
|----------3~-------------------------------------------------------0--|
|--------------------0---2---3---2---0-----------0---2---3---2---0-----|
|--------------------------------------------2-------------------------|
|----------------------------------------------------------------------|
|----------------------------------------------------------------------|


  SI7
|---------------------------------------------------------------------||
|---------------------------------------------------------------------||
|--0------------------------------------0---2---3---2-----------------||
|-----------------------------------2-------------------4---3---2---0-||
|---------------------------------------------------------------------||
|---------------------------------------------------------------------||


Ecco i diagrammi degli accordi :

  MIm     DO7add7+    SI7
|--0----|---3-----|----2----|
|--0----|---0-----|----0----|
|--0----|---3-----|----2----|
|--2----|---2-----|----1----|
|--2----|---3-----|----2----|
|--0----|---------|---------|


        MIm
Je so' pazzo, je so' pazzo,
        DO7add7+                   SI7
e vogl' essere chi vogl'io ascite fore da casa mia
        MIm
je so' pazzo, je so' pazzo
        DO7add7+                   SI7
ho il popolo che mi aspetta e scusate vado di fretta
        LAm7          SI7         MIm
non mi date sempre ragione, io lo so che sono un errore
        LAm7          SI7         MIm
nella vita voglio vivere almeno un giorno da leone
        LAm7          SI7         MIm
e lo Stato questa volta non mi deve condannare
        MIm           DO7add7+    SI7  (MUTE)
pecchè so'pazzo, je so' pazzo          e oggi voglio parlare


[Come Sopra]

Je so' pazzo, je so' pazzo
Si s'ntosta 'a nervatura, metto a tutt' 'nfaccia o' muro
Je so' pazzo, je so' pazzo
E chi dice che Masaniello poi negro non sia più bello
E non sono menomato, sono pure diplomato
E la faccia nera l'ho dipinta per essere notato
Masaniello è cresciuto, Masaniello è turnato
Je so' pazzo, je so' pazzo
Nun ce scassate 'o ....
"i plettri sono fatti per essere persi, dimenticati, fregati agli amici, scambiati come fiches del casinò.. lavati con i jeans.." [cit. Mario]

Guida ai plettri per chitarra
Avatar utente
noice
Ricercatore CDS
Ricercatore CDS
 
Messaggi: 1718
Località: Ischia

Accordi Tab Intro Solo Je so pazzo - Pino Daniele

Messaggiodi Mauro80

Io l'intro la faccio così, se può servire da spunto a qualcuno:


Mauro80
Musicista guru
Musicista guru
 
Messaggi: 7933
Località: TO

Messaggiodi noice

bella Maure'..non ti preoccupare la tab la puoi scrivere con calma..perche' la stavi scrivendo vero? 8) 8) 8) :)
"i plettri sono fatti per essere persi, dimenticati, fregati agli amici, scambiati come fiches del casinò.. lavati con i jeans.." [cit. Mario]

Guida ai plettri per chitarra
Avatar utente
noice
Ricercatore CDS
Ricercatore CDS
 
Messaggi: 1718
Località: Ischia

Messaggiodi Mauro80

noice ha scritto:bella Maure'..non ti preoccupare la tab la puoi scrivere con calma..perche' la stavi scrivendo vero? 8) 8) 8) :)


Ehm... infatti... :oops:

:lol:

Seriamente... oggi pomeriggio ho fatto giusto in tempo a mettere solo il video, comunque domani posto anche la tab :wink:
Mauro80
Musicista guru
Musicista guru
 
Messaggi: 7933
Località: TO

Messaggiodi noice

bravisSSsimo :x :x
"i plettri sono fatti per essere persi, dimenticati, fregati agli amici, scambiati come fiches del casinò.. lavati con i jeans.." [cit. Mario]

Guida ai plettri per chitarra
Avatar utente
noice
Ricercatore CDS
Ricercatore CDS
 
Messaggi: 1718
Località: Ischia

Messaggiodi Mauro80

Come promesso, la prima sull'ottava più bassa e seconda su quella più alta :)

Codice: Seleziona tutto
JE SO PAZZO TAB BY MAURO80 (INTRO)

Legenda

p = pull-off
/\ = slide
b = bend
r = release


e------------------------------------------------------------------------------
B-3/5---3----------------------------------------------------------------------
G---------2br-0-----0-2-2/4\2p0-2/4-4-----0-2-2/3\2p0--------------------------
D-----------------2---------------------2-------------2-0-2--------------------
A------------------------------------------------------------------------------
E------------------------------------------------------------------------------

e-10/12---10-------------------------------------------------------------------
B------------10br8-----8-10-10br-8-10/12-12-----8-10-10br-8--------------------
G--------------------9------------------------9-------------9-7-7/9------------
D------------------------------------------------------------------------------
A------------------------------------------------------------------------------
E------------------------------------------------------------------------------
Mauro80
Musicista guru
Musicista guru
 
Messaggi: 7933
Località: TO

Accordi Tab Intro Solo Je so pazzo - Pino Daniele

Messaggiodi noice

&^^%
"i plettri sono fatti per essere persi, dimenticati, fregati agli amici, scambiati come fiches del casinò.. lavati con i jeans.." [cit. Mario]

Guida ai plettri per chitarra
Avatar utente
noice
Ricercatore CDS
Ricercatore CDS
 
Messaggi: 1718
Località: Ischia

Messaggiodi Il Giustiziere delle note

ottima tab! allego subito alla mia versione :oops:
Codice: Seleziona tutto
JE SO PAZZ (Pino Daniele)
edit by QUIQUO (Marco)  /  http://quiquo.altervista.org
(su Quiquo tutte le diteggiature degli accordi, la lavagna di Archimede per cambiare la tonalità, separare il testo dagli accordi e scegliere il layout di stampa)

preINTRO:
e------3-0----------------------
B--0-3-----3-0------------------
G--------------2b--0------0-----
D---------------------0h2-------
A-------------------------------
E----------------------------0--

INTRO:
[MIm*] [SI7] [MIm]
e--3--2----2-0---3-3-2--2-2-0-----3--2----2-0---3-3-2-2-2-2-0-
B--0--0----0-0---0-0-0--0-0-0-----0--0----0-0---0-0-0-0-0-0-0-
G--0--2----2-0-----0-2----2-0-----0--2----2-0-----0---2---2-0-
D-------------------------------------------------------------
A-------------------------------------------------------------
E-------------------------------------------------------------
   G  G    G S   S G S  S G S     G  G    G S   S G S G S G S (dir. pennate)
________________________________________________________
[MIm*] [SI7] [MIm] (x4)

TAB ARMONICA by Mauro80
  [DO7]                  [SI7]                        [MIm]
e------------------------------------------------------------------------------
B-3/5---3----------------------------------------------------------------------
G---------2br-0-----0-2-2/3\2-0-2/4-4-----0-2-2/3\2-0--------------------------
D-----------------2---------------------2-------------4-3-2--------------------
A------------------------------------------------------------------------------
E------------------------------------------------------------------------------
un'ottava sopra
e-10/12---10-------------------------------------------------------------------
B------------10br8-----8-10-10br-8-10/12-12-----8-10-10br-8--------------------
G--------------------9------------------------9-------------11-10-9------------
D------------------------------------------------------------------------------
A------------------------------------------------------------------------------
E------------------------------------------------------------------------------
[MIm*] [SI7] [MIm] (x4)
[DO7]         [SI7]
[MIm*] [SI7] [MIm] (x4)

I so' [MIm] pazz, [MIm/SI] ah,
I so' [MIm] pazz [MIm/SI]
e vugl'[DO7]essr chi vogl'[DO7/SOL]io
ascite [SI7] fora d'a casa [SI7/FA#] mia
I so' pazz, I so' pazz
cio' il popolo che mi ascpetta e scusate vado di fretta

Non mi [LAm7] date sempre ra[SI7]gione,
io lo [MIm] so che sono un er[MIsus4]rore
nella [LAm7] vita voglio [SI7] vivere
almeno un [MIm] giorno da le[MIsus4]one
e lo S[LAm7]tato questa [SI7] volta non mi [MIm] deve condannare
pecchè so' [DO7] pazz, ehhh
i so' [SI7] pazz
(STOP MUSIC)
e oggi voglio par[MIm]lare.

[MIm*] [SI7] [MIm](x2)
[DO7]   [SI7]
[MIm*] [SI7] [MIm](x4)
[DO7]   [SI7]
[MIm*] [SI7] [MIm](x4)

I so' [MIm] pazz, i so' pazz
si se 'n[DO7]tosta 'a nervatura,
metto a [SI7] tutti 'nfaccia o muro
I so' [MIm] pazz, i so' pazz
e chi [DO7] dice che Masaniello
poi [SI7] negro non sia più bello?

E non [LAm7] sono meno[SI7]mato,
sono [MIm] pure diplo[MIsus4]mato
e la [LAm7] faccia nera [SI7] l'ho dipinta
per [MIm] essere notato
Masa[LAm7]niello è crisciuto,
[SI7] Masa[MIm]niello è turnato
i so' [DO7] pazz, ehhhh
i so' [SI7] pazz
(STOP MUSIC)
nun nce scassate 'o cazz! [MIm]

[MIm*] [SI7] [MIm](x2)
[DO7]   [SI7]
[MIm*] [SI7] [MIm](x4)
[DO7]   [SI7]
[MIm*] [SI7] [MIm](x4)

********************
[MIm*]=022003
[DO7]=x35353 x32010
[SI7]=x24242 x21202

accordi 'facoltativi'
[MIm/SI]=x22000
[DO7/SOL]=335353 3x2010
[SI7/FA#]=224242 2x1202
[MIsus4]=022200

Ultima modifica di Il Giustiziere delle note su , modificato 2 volte in totale.
Avatar utente
Il Giustiziere delle note
Ricercatore CDS
Ricercatore CDS
 
Messaggi: 605

Messaggiodi Mauro80

Il Giustiziere delle note ha scritto:ottima tab! allego subito alla mia versione :oops:


Caspita, che onore! :)

Grazie Giustiziere... :shock:
Mauro80
Musicista guru
Musicista guru
 
Messaggi: 7933
Località: TO

Accordi Tab Intro Solo Je so pazzo - Pino Daniele

Messaggiodi ST Styles

Ragazzi non è che qualcuno ha il tab per Guitar Pro 6 di questa canzone? Non riesco a trovarlo :cry:
ST Styles
Musicista neonato
Musicista neonato
 
Messaggi: 149
Località: Napoli

Accordi Tab Intro Solo Je so pazzo - Pino Daniele

Messaggiodi mauz bitto

l'ho trovata (FORSE) su un sito...ma bisogna iscriversi....

fai tu
:wink:
mauz bitto
Musicista guru
Musicista guru
 
Messaggi: 3531
Località: Bitonto (Ba)

Accordi Tab Intro Solo Je so pazzo - Pino Daniele

Messaggiodi noice

se vuoi evitare la registrazione usa bugmenot.com
di solito funziona :)
per esempio
user : bugmenot
password: bugmenot
ho provato ora e va 8)
"i plettri sono fatti per essere persi, dimenticati, fregati agli amici, scambiati come fiches del casinò.. lavati con i jeans.." [cit. Mario]

Guida ai plettri per chitarra
Avatar utente
noice
Ricercatore CDS
Ricercatore CDS
 
Messaggi: 1718
Località: Ischia

Messaggiodi ST Styles

Grazie ma niente..non c'è neanche lì :cry:
ST Styles
Musicista neonato
Musicista neonato
 
Messaggi: 149
Località: Napoli

Prossimo


Torna a Accordi TAB Riff testo chords - Studiare canzoni


Chi c’è in linea

Visitano il forum: Nessuno e 3 ospiti