Accordi Tab Ritmo arpeggio Napul'è - Pino Daniele

Hai trovato gli accordi chords di una canzone ad orecchio e vorresti suggerirla? Oppure vuoi proporre la TAB per chitarra del tuo Riff preferito? il testo? Questo è il forum giusto! Anche per suggerimenti sul ritmo di una canzone. Ricordati di usare la funzione cerca...

Accordi Tab Ritmo arpeggio Napul'è - Pino Daniele

Messaggiodi pppppp

Immagine

starei cercando la tab di napul'è...grazie!!!
............I stayed too long................

mettiamo un po d cose in chiaro... io sono più fan d eric clapton di te
io sono l'unico pppppp del forum e tanti saluti ai suonatori...B-)
m correggo: io SONO eric clapton
pppppp
Musicista embrione
Musicista embrione
 
Messaggi: 77


Messaggiodi rufus89

eccola...
Codice: Seleziona tutto
DO7+    FA7+    DO7+    FA7+    SOL7

DO7+              FA7+
Napule è mille culure
DO7+              FA7+
Napule è mille paure
SOL7                     Mim7
Napule è a voce dè creature
      MI7              Lam7
Che saglie chianu chianu
       FA     SOL7     DO
E tu sai ca nun sì sula

Napule è nu sole amaro
Napule è addore e mare
Napule è na carta sporca
E nisciuno se ne mporta
E ognuno aspetta a sciorta

Napule è na camminata
Int?e viche e mmiezz?all?ate
Napule è tutto lu suonno
E a sape tutto o munno
Ma nun sann?a verità

DO7+                        FA7+
     Napule è mille culure       Napule è mille paure
DO7+                        FA7+
     Napule è nu sole amaro   Napule è addore e mare
DO7+                         FA7+
     Napule è na carta sporca    e nisciuno se ne mporta
DO7+                    FA7+
     Napule è na camminata   int?e viche e mmiezz?all?ate
DO7+                         FA7+
     Napule è tutto lu suonno     e a sape tutto o munno
DO7+                       FA7+
     Napule è mille culura     Napule è mille paure
(sfumando)
"In ogni conflitto le manovre regolari portano allo scontro, e quelle imprevedibili alla vittoria." (Sun Tzu - L'arte della guerra)

Accordi e tab Asaf Avidan
Avatar utente
rufus89
Musicista affermato
Musicista affermato
 
Messaggi: 1002
Località: Latina

Accordi Tab Ritmo arpeggio Napul'è - Pino Daniele

Messaggiodi pppppp

grazie mille!!!
............I stayed too long................

mettiamo un po d cose in chiaro... io sono più fan d eric clapton di te
io sono l'unico pppppp del forum e tanti saluti ai suonatori...B-)
m correggo: io SONO eric clapton
pppppp
Musicista embrione
Musicista embrione
 
Messaggi: 77

Accordi Tab Ritmo arpeggio Napul'è - Pino Daniele

Messaggiodi andrea_funguitar90




Napul'è....NA POESIA!!

su questi accordi puoi tranquillamente arpeggiare tipo pianoforte..^^

Codice: Seleziona tutto

========
From: "lucariello" <rluc@freemail.it>
Date: Fri, 08 Jun 2001 20:01:34 GMT
--------

Pino Daniele
Napul'è (Versione "E sona mo'" 1993)

INTRO:
Re7+                      Sol7+
|--2-----2-----2-----2------2-----2-----2-----2-----|
|--2-----2-----2-----2------3-----3-----3-----3-----|
|--2--2-----2-----2-----2------4-----4-----4-----4--|
|--0------------------------5-----------------------|
|---------------------------------------------------|
|---------------------------------------------------|
Re7+                      Sol7+
|--2-----2-----2-----2------2-----2-----2-----2-----|
|--2-----2-----2-----2------3-----3-----3-----3-----|
|-----2-----2-----2-----2------4-----4-----4-----4--|
|--0------------------------5-----------------------|
|---------------------------------------------------|
|---------------------------------------------------|



Re7+                      Sol7+
|--2-----2-----2-----2------2-----2-----2-----2-----|
|--2-----2-----2-----2------3-----3-----3-----3-----|
|-----2-----2-----2-----2------4-----4-----4-----4--|
|--0------------------------5-----------------------|
|---------------------------------------------------|
|---------------------------------------------------|
           Napul'è mille culure
Re7+                      Sol7+
|--2-----2-----2-----2------2-----2-----2-----2-----|
|--2-----2-----2-----2------3-----3-----3-----3-----|
|-----2-----2-----2-----2------4-----4-----4-----4--|
|--0------------------------5-----------------------|
|---------------------------------------------------|
|---------------------------------------------------|
            Napul'è mille paure
  La          La7         Fa#m7        Fa#
|--------------------0------------5-----------2-----|
|--2--------2--2-----2------2-----2-----2-----2-----|
|--2-----2-----0-----0------2-----2-----3-----3-----|
|--2--2-----------2---------2--2-----2--4--4-----4--|
|--0-----------0------------------------------------|
|---------------------------2-----------2-----------|
   Napul'è a voce d'e criature che saglie chianu
  Sim7        Sol   La     Re7+
|---------------------------2-----2-----2-----2-----|
|--3-----3-----0-----2------2-----2-----2-----2-----|
|--2-----2-----0-----2---------2-----2-----2-----2--|
|--4--4-----4-----0-----2---0-----------------------|
|--2-----------------2------------------------------|
|-------(5)----3------------------------------------|
chianu e tu sai ca nun si sulo

Re7+             Sol7+
Napul'è nu sole amaro
Re7+             Sol7+
Napul'è addore 'e mare
La    7            Fa#m7
Napul'è 'na carta sporca
      Fa#         Sim7
e nisciuno se n'importa
    Sol    La       Re7+_|
e ognuno aspetta a ciorta.

SOLO

|-------12--12-12-12-12-12-9---------------7--7--7--|
|---------------------------------------------------|
|---------------------------------7--7--7-----------|
|---------------------------------------------------|
|---------------------------------------------------|
|---------------------------------------------------|

|--7--7--7----5------5------------------------------|
|----------------8----------------------------------|
|---------------------------------------------------|
|--------------------------7ar----------------------|
|---------------------------------------------------|
|---------------------------------------------------|

|---------------------------------------------------|
|-----------7--8---7------7--8----------------------|
|--7--7--9-------------9------------6---------------|
|---------------------------------------------------|
|---------------------------------------------------|
|---------------------------------------------------|

|---------------------------------------------------|
|-----------5-5^7--5-----5---7----------------------|
|--6--6--7------------7-----------------------------|
|---------------------------------------------------|
|---------------------------------------------------|
|---------------------------------------------------|

|---------------------------------------------------|
|--------------------------------------5-5-7-7-8-8--|
|--------------------------4-4-6-6-7-7--------------|
|------------4-4--5-5--7-7--------------------------|
|--5-5--7-7-----------------------------------------|
|---------------------------------------------------|

|--5-5-7-7-9-9--10-10^12--12------10-9-10-9---------|
|---------------------------------------------10----|
|---------------------------------------------------|
|---------------------------------------------------|
|---------------------------------------------------|
|---------------------------------------------------|

|---------------------------------------------------|
|---------------8-8--10-10^12--12----10------10-----|
|-----7-7--9-9---------------------------12---------|
|--9------------------------------------------------|
|---------------------------------------------------|
|---------------------------------------------------|

|---------------------------------------------------|
|-8--10---8--7--8---7---7-8---7---7-8^10-10-8-8-----|
|---------------------9---------9---------------7-7-|
|--------------------------------------------------9|
|---------------------------------------------------|
|---------------------------------------------------|

|-----------------------------2---------------------|
|-------7-7----------7--------2---------------------|
|----9-------9--7^9-----------2---------------------|
|-----------------------------0---------------------|
|---------------------------------------------------|
|---------------------------------------------------|

ecc..... :)
  Re7+                 Sol7+
|--2------2---2-----2---2----------2-2-2-2-2-2-0----|
|--2------2---2-----2---3--3-3-3-3-3-3-3-3-3-3-3----|
|--2--2-2-------2-2-----4--4-4-4-4-4-4-4-4-4-4-4----|
|--0--------0-4---------5----------5----------------|
|---------------------------------------------------|
|---------------------------------------------------|
               Napul'è 'na cammenata
  Re7+                  Sol7+
|--2------2---2-----2---2---2^3-2--------3-2--------|
|--2------2---2-----2---3---------3----------3------|
|--2--2-2-------2-2-----4--------------4-------4----|
|--0--------0-4---------5-5----------5--------------|
|---------------------------------------------------|
|---------------------------------------------------|
              Dinte 'e viche 'miezz' all'ate
La          La7         Fa#m7        Fa#
|--------------------0------------5-----------2-----|
|--2--------2--2-----2------2-----2-----2-----2-----|
|--2-----2-----0-----0------2-----2-----3-----3-----|
|--2--2-----------2---------2--2-----2--4--4-----4--|
|--0-----------0------------------------------------|
|---------------------------2-----------2-----------|
   Napul'è tutto nu' suonno e a sape tutto
  Sim7        Sol   La     Re7+
|---------------------------2-----------------------|
|--3-----3-----0-----2------2-----------------------|
|--2-----2-----0-----2------2-----------------------|
|--4--4-----4-----0-----2---0-----------------------|
|--2-----------------2------------------------------|
|-------(5)----3------------------------------------|
'o munno ma nun sanno a verita'


----------------
ar= Armonica
Ho trascurato gli assoli più vivaci per ovvi motivi :)
Nella seconda strofa puoi arpeggiare come meglio ti pare per non far
sembrare troppo monotona la canzone. Nella terza strofa ho provato a fare
con la chitarra ciò che fa Antonio Annona alla tastiera... vedi un po' tu
come adattarla meglio.

Ciao,
Luca(riello)


--
rluc@freemail.it

[quote][/quote]
" Quel che è meglio e che la chitarra ti prende anche l'anima e non solo le dita e la voce.."
andrea_funguitar90
Musicista neonato
Musicista neonato
 
Messaggi: 102


Re: napul'è - Pino Daniele

Messaggiodi girardengo

ciao a tutti , penso ke ne sapete piu di me :-))). fino ad adesso ho suonato sempre i soliti la mi re + e - ,pero vedendo questa bellissima canzone
mi ispira moltissimo anke se dovrei mettere un annno a farla :-))). la prima tab con accordi fa+7 do+7 ke ne dite meglio farla in barre???????? se si solo il fa? . la seconda tab e stupenda la vorrei provare che ne dite per iniziare quale conviene suonare prima? premetto e tre mesi ke suono con i barre non ho tanta difficolta anzi credevo peggio ma con l arpeggio non mi viene naturale .grazie spero per la risposta :HH :HH 8_)
Sempre sulle lapidi, a me basterà il mio nome, le due date che sole contano, e la qualifica di scrittore e partigiano.
girardengo
Musicista embrione
Musicista embrione
 
Messaggi: 28

Re: napul'è - Pino Daniele

Messaggiodi io_sono_leggenda

Gli accordi FA7+ e DO7+ puoi tranquillamente farli senza barré, xx3210 e x32000, ma se tu preferisci usare le diteggiature con il barré nessuno può impedirtelo :-DD . Puoi studiare quale delle due versioni preferisci, in quanto la seconda TAB differisce dalla prima solo per la tonalità (1 tono sopra rispetto alla prima).
8_)
Avatar utente
io_sono_leggenda
Musicista affermato
Musicista affermato
 
Messaggi: 980
Località: Genova

Re: napul'è - Pino Daniele

Messaggiodi girardengo

il do7+ mi e chiarissimo ma il fa7+ lo trovo in diversi modi e sempre al primo tasto ?

0--------|--------|--------|--------|--------| <-----Mi
||---1---|--------|--------|--------|--------| <-----Do
||--------|---2---|--------|--------|--------| <-----La
||--------|--------|---4---|--------|--------| <-----Fa
||--------|--------|---3---|--------|--------| <-----Do
X--------|--------|--------|--------|--------| <-----

il do sulla corda Del la lo devo suonare? o e optional?

E |--1--|-----|-----|-----|
B 0|-- --|-----|-----|-----|
G |-----|--2--|-----|-----|
D 0|---- |-----|-----|-----|
A |-----|-----|--3--|-----|
E x|----|-----|-----|-----|
l ho visto anke suonare cosi possibbile???

E x |----|-----|-----|-----|
B |----|---3-|-----|-----|
G |-----|--2--|-----|-----|
D |----|----- |---4-|-----|
A x|-----|-----|---- |-----|
E |--1--|-----|-----|-----|

e su un canzoniere ke ho a casa il Fa7+ me lo indica cosi.
mo nun ce capisco piu niente :SSS :-DD 8_)
Sempre sulle lapidi, a me basterà il mio nome, le due date che sole contano, e la qualifica di scrittore e partigiano.
girardengo
Musicista embrione
Musicista embrione
 
Messaggi: 28

Re: napul'è - Pino Daniele

Messaggiodi io_sono_leggenda

Parliamo di teoria musicale: l'accordo FA7+ è formato dalla Tonica FA, Terza Maggiore LA, Quinta Giusta DO e Settima Maggiore MI. Quindi devi eseguire queste 4 note per avere l'accordo FA7+. La diteggiatura più semplice è xx3210, dove hai, in ordine, le note FA, LA, DO e MI. Se usi invece x33210 allora stai eseguendo il secondo rivolto di FA7+, poiché la nota più bassa è la Quinta (DO) e non la Tonica (FA). Se tu preferisci questa diteggiatura, puoi usarla tranquillamente. x30201 è invece una diteggiatura sbagliata per FA7+, perché suoni anche le note RE e SI, che non fanno parte dell'accordo. 1x322x è ancora sbagliato, c'è la nota DO# che non fa parte dell'accordo. Sei sicuro che sia scritto così sul canzoniere?
Avatar utente
io_sono_leggenda
Musicista affermato
Musicista affermato
 
Messaggi: 980
Località: Genova

Re: napul'è - Pino Daniele

Messaggiodi girardengo

sicuro al 100% che sul canzoniere e cosi sara errore di stampa perche non e un gran ke quel canzoniere,mi ha fatto impazzire ieri sera perche era impossibbile che non suonava , per le prime due diteggiature sono daccordo con te mi viene meglio la prima chiaro ,la terza l ho vista su un tipo ke suona su youtube che quelle note forse ho visto male . se saprei come si fa inserirei la foto dell accordo . stasera guardo meglio o e possibbile ke sia al contrario?
pero la corda del la ce la x o all incontrario diventa si x .
Sempre sulle lapidi, a me basterà il mio nome, le due date che sole contano, e la qualifica di scrittore e partigiano.
girardengo
Musicista embrione
Musicista embrione
 
Messaggi: 28

Re: napul'è - Pino Daniele

Messaggiodi girardengo

allora la tab precisa del canzoniere e questa del Fa7+

1--------------------------------
2-----@--------------------------
3-----------@---------------------
4-----------@--------------------
5 X-------------------------------
6-----@-------------------------

Questo e l accordo di Fa7+che ho sul canzoniere mi dai la mail e ti mando la pagina completa con tutti i fa possibbili e immagginabili :-))))) 8_) 8_) 8_) ....... e il primo e secondo tasto non sono tanto bravo a scrivere le tab .
Sempre sulle lapidi, a me basterà il mio nome, le due date che sole contano, e la qualifica di scrittore e partigiano.
girardengo
Musicista embrione
Musicista embrione
 
Messaggi: 28

Re: napul'è - Pino Daniele

Messaggiodi io_sono_leggenda

Ti ho scritto il mio indirizzo e-mail in un messaggio privato così puoi mandarmi la foto. Comunque la diteggiatura che hai postato adesso è corretta, non è un errore del canzoniere: in pratica è come fare un LAm in prima posizione con il FA al basso (secondo me non rende bene come xx3210, ma è solo un parere personale). Comunque sappi che per tutti gli accordi ci sono diverse diteggiature che puoi usare, ma tocca a te scegliere quella più adatta, in base al contesto musicale e in base ai tuoi gusti in fatto di sonorità; però è importante non cambiare anche l'accordo quando cambi la sua diteggiatura (a meno che non sia una modifica voluta).
Avatar utente
io_sono_leggenda
Musicista affermato
Musicista affermato
 
Messaggi: 980
Località: Genova

Re: napul'è - Pino Daniele

Messaggiodi girardengo

leggenda ieri sera l ho provata col do7+ e la diteggiatura xx3210 del fa7+ e suona stupendamente bella all inizio un po di casino con le pennate ma se no tutto ok .ti ringrazio sei stato di grande aiuto :-DD 8_) 8_) .
Sempre sulle lapidi, a me basterà il mio nome, le due date che sole contano, e la qualifica di scrittore e partigiano.
girardengo
Musicista embrione
Musicista embrione
 
Messaggi: 28

Re: napul'è - Pino Daniele

Messaggiodi girardengo

allora raga sta canzone e stupenda ma ho anke capito ke e anke difficilotta ho provato e riprovato ma nada de nada Do7+ Fa7+ non ce problema arrivati al sol7
non riesco a cambiare ritmo .due sono le cose o faccio tutta la canzone con due accordi :-)))) o qualkuno mi da una dritta .
8_) 8_) 8_) ciauzzzzzzzzz ragazzzzzz
Sempre sulle lapidi, a me basterà il mio nome, le due date che sole contano, e la qualifica di scrittore e partigiano.
girardengo
Musicista embrione
Musicista embrione
 
Messaggi: 28

Re: napul'è - Pino Daniele

Messaggiodi giuggiolo

Ciao ragazzi, grazie per la tab! :)

Vi chiedo una mano: di questa canzone dovrei suonare anche la parte del cantato (con un flauto traverso). Sapreste indicarmi la tonalità del brano (dovrebbe essere in Do maggiore dato che compare Do, Sol e Fa, ma non ne sono sicuro) e magari anche una fonte in cui trovare uno spartito per la melodia cantata?

Grazie in anticipo :)
giuggiolo
Musicista embrione
Musicista embrione
 
Messaggi: 22

Prossimo


Torna a Accordi TAB Riff testo chords - Studiare canzoni


Chi c’è in linea

Visitano il forum: Nessuno e 13 ospiti