Sei qui: Home CDS - Tastiera e Scale - Differenza TAB pentagramma

Il simbolo "@" rappresenta una nota.

Se noi suoniamo la prima corda (quella più sottile) a vuoto, la nota che otteniamo è la nota "Mi".

Ma questa nota "Mi", a che ALTEZZA si trova esattamente sul Pentagramma?
Qual'è la relazione tra TAB e Pentagramma? E le differenze?

TAB:

----------0-------------------------------<-----prima corda a vuoto della chitarra
------------------------------------------
------------------------------------------
------------------------------------------
------------------------------------------
------------------------------------------

PENTAGRAMMA:

------------------------------------------- <-----quinta linea
----------------------------------@--------- <-----quarto spazio
------------------------------------------- <-----quarta linea
------------------------------------------- <-----terzo spazio
------------------------------------------- <-----terza linea
------------------------------------------- <-----secondo spazio
------------------------------------------- <-----seconda linea
------------------------------------------- <-----primo spazio
------------------------------------------- <-----prima linea

Se invece suono la seconda corda a vuoto della chitarra, ottengo la nota "Si":

TAB:

--------------------------------------------
--------------------------------0---------- <----- 2° corda a vuoto della chitarra
--------------------------------------------
--------------------------------------------
--------------------------------------------
--------------------------------------------

PENTAGRAMMA:

------------------------------------------- <-----quinta linea
------------------------------------------- <-----quarto spazio
------------------------------------------- <-----quarta linea
------------------------------------------- <-----terzo spazio
---------------@---------------------------- <-----terza linea
------------------------------------------- <-----secondo spazio
------------------------------------------- <-----seconda linea
------------------------------------------- <-----primo spazio
------------------------------------------- <-----prima linea

Se invece suono la terza corda a vuoto della chitarra ottengo la nota "Sol":

TAB:

--------------------------------------------
--------------------------------------------
------------------------------0------------ <-----3° corda a vuoto della chitarra
--------------------------------------------
--------------------------------------------
--------------------------------------------

PENTAGRAMMA:

------------------------------------------- <-----quinta linea
------------------------------------------- <-----quarto spazio
------------------------------------------- <-----quarta linea
------------------------------------------- <-----terzo spazio
------------------------------------------- <-----terza linea
------------------------------------------- <-----secondo spazio
--------------@----------------------------- <-----seconda linea
------------------------------------------- <-----primo spazio
------------------------------------------- <-----prima linea

Se invece suono la quarta corda a vuoto della chitarra ottengo la nota "Re":

TAB:

--------------------------------------------
--------------------------------------------
--------------------------------------------
----------------------------0-------------- <-----4° corda a vuoto della chitarra
--------------------------------------------
--------------------------------------------

PENTAGRAMMA:

------------------------------ <-----quinta linea
------------------------------ <-----quarto spazio
------------------------------ <-----quarta linea
------------------------------ <-----terzo spazio
------------------------------ <-----terza linea
------------------------------ <-----secondo spazio
------------------------------ <-----seconda linea
------------------------------ <-----primo spazio
------------------------------ <-----prima linea
----------------------@------- <-----primo spazio ADDIZIONALE inferiore
------------------------------ <------prima linea ADDIZIONALE inferiore
------------------------------ <------secondo spazio ADDIZIONALE inferiore
------------------------------ <------seconda linea ADDIZIONALE inferiore
------------------------------ <------terzo spazio ADDIZIONALE inferiore
------------------------------ <------terza linea ADDIZIONALE inferiore
------------------------------ <-----quarto spazio ADDIZIONALE inferiore

Se invece suono la quinta corda a vuoto della chitarra ottengo la nota "La":

TAB:

---------------------------------------------
---------------------------------------------
---------------------------------------------
---------------------------------------------
----------------------------0--------------- <-----5° corda a vuoto della chitarra
---------------------------------------------

PENTAGRAMMA:

------------------------------ <-----quinta linea
------------------------------ <-----quarto spazio
------------------------------ <-----quarta linea
------------------------------ <-----terzo spazio
------------------------------ <-----terza linea
------------------------------ <-----secondo spazio
------------------------------ <-----seconda linea
------------------------------ <-----primo spazio
------------------------------ <-----prima linea
------------------------------ <-----primo spazio ADDIZIONALE inferiore
------------------------------ <------prima linea ADDIZIONALE inferiore
------------------------------ <------secondo spazio ADDIZIONALE inferiore
---------------@--------------- <------seconda linea ADDIZIONALE inferiore
------------------------------ <------terzo spazio ADDIZIONALE inferiore
------------------------------ <------terza linea ADDIZIONALE inferiore
------------------------------ <-----quarto spazio ADDIZIONALE inferiore

Se invece suono la sesta corda a vuoto della chitarra ottengo la nota "Mi":

TAB:

----------------------------------------------
----------------------------------------------
----------------------------------------------
----------------------------------------------
----------------------------------------------
-----------------------------0--------------- <-----6° corda a vuoto della chitarra

PENTAGRAMMA:

------------------------------ <-----quinta linea
------------------------------ <-----quarto spazio
------------------------------ <-----quarta linea
------------------------------ <-----terzo spazio
------------------------------ <-----terza linea
------------------------------ <-----secondo spazio
------------------------------ <-----seconda linea
------------------------------ <-----primo spazio
------------------------------ <-----prima linea
------------------------------ <-----primo spazio ADDIZIONALE inferiore
------------------------------ <------prima linea ADDIZIONALE inferiore
------------------------------ <------secondo spazio ADDIZIONALE inferiore
------------------------------ <------seconda linea ADDIZIONALE inferiore
------------------------------ <------terzo spazio ADDIZIONALE inferiore
------------------------------ <------terza linea ADDIZIONALE inferiore
----------@-------------------- <-----quarto spazio ADDIZIONALE inferiore

Quindi, suonando dalla sesta alla prima corda a vuoto della chitarra, produciamo le seguenti note, trascritte sia su TAB che su Pentagramma:

TAB:

------------------------------------------------------0-----------------------
----------------------------------------------0-------------------------------
--------------------------------------0---------------------------------------
------------------------------0-----------------------------------------------
----------------------0-------------------------------------------------------
---------------0--------------------------------------------------------------

PENTAGRAMMA:

-------------------------------- <-----settimo spazio ADDIZIONALE superiore
-------------------------------- <-----sesta linea ADDIZIONALE superiore
-------------------------------- <-----sesto spazio ADDIZIONALE superiore
-------------------------------- <-----quinta linea ADDIZIONALE superiore
-------------------------------- <-----quinto spazio ADDIZIONALE superiore
-------------------------------- <-----quarta linea ADDIZIONALE superiore
-------------------------------- <-----quarto spazio ADDIZIONALE superiore
-------------------------------- <-----terza linea ADDIZIONALE superiore
-------------------------------- <-----terzo spazio ADDIZIONALE superiore
-------------------------------- <-----seconda linea ADDIZIONALE superiore
-------------------------------- <-----secondo spazio ADDIZ. superiore
-------------------------------- <-----prima linea ADDIZIONALE superiore
-------------------------------- <-----primo spazio ADDIZIONALE superiore
-------------------------------- <-----quinta linea
----------------------------@--- <-----quarto spazio
-------------------------------- <-----quarta linea
-------------------------------- <-----terzo spazio
------------------------@------- <-----terza linea
-------------------------------- <-----secondo spazio
---------------------@---------- <----seconda linea
-------------------------------- <-----primo spazio
-------------------------------- <-----prima linea
-----------------@-------------- <-----primo spazio ADDIZIONALE inferiore
-------------------------------- <-----prima linea ADDIZIONALE inferiore
-------------------------------- <-----secondo spazio ADDIZIONALE inferiore
------------@------------------- <-----seconda linea ADDIZIONALE inferiore
-------------------------------- <-----terzo spazio ADDIZIONALE inferiore
-------------------------------- <-----terza linea ADDIZIONALE inferiore
-------@------------------------ <-----quarto spazio ADDIZIONALE inferiore

Queste sono tutte e 12 le note che abbiamo visto:

Do-----Do#(=Reb)-----Re-----Re#(=Mib)-----Mi-----Fa-----Fa#(=Solb)-----Sol -----Sol#(=Lab)-----La-----La#(=Sib)-----Si

Se suoniamo la prima corda a vuoto otteniamo la nota "Mi". Se diteggiamo quella stessa corda al primo tasto e la plettriamo, otteniamo la nota "Fa". Se diteggiamo la prima corda al secondo tasto e la plettriamo, otteniamo la nota "Fa#". Se diteggiamo la prima corda al terzo tasto e la plettriamo, otteniamo la nota "Sol". Se diteggiamo la prima corda al quarto tasto e la plettriamo, otteniamo la nota "Sol#". Se diteggiamo la prima corda al quinto tasto e la plettriamo, otteniamo la nota "La".

Se suoniamo la seconda corda a vuoto, otteniamo la nota "Si". Se diteggiamo la seconda corda al primo tasto e la plettriamo, otteniamo la nota ""Do". Se diteggiamo la seconda corda al secondo tasto e la plettriamo, otteniamo la nota "Do#". Se diteggiamo la seconda corda al terzo tasto e la plettriamo, otteniamo la nota "Re". Se diteggiamo la seconda corda al quarto tasto e la plettriamo, otteniamo la nota "Re#". Se diteggiamo la seconda corda al quinto tasto, otteniamo la nota "Mi".

Se suoniamo la terza corda a vuoto otteniamo la nota "Sol". Se diteggiamo la terza corda al primo tasto e la plettriamo, otteniamo la nota "Sol#". Se diteggiamo la terza corda al secondo tasto e la plettriamo, otteniamo la nota "La". Se diteggiamo la terza corda al terzo tasto e la plettriamo, otteniamo la nota "La#". Se diteggiamo la terza corda al quarto tasto e la plettriamo, otteniamo la nota "Si". Se diteggiamo la terza corda al quinto tasto e la plettriamo, otteniamo la nota "Do".

Se suoniamo la quarta corda a vuoto otteniamo la nota "Re". Se diteggiamo la quarta corda al primo tasto, otteniamo la nota "Re#". Se diteggiamo la quarta corda al secondo tasto e la plettriamo, otteniamo la nota "Mi". Se diteggiamo la quarta corda al terzo tasto e la plettriamo, otteniamo la nota "Fa". Se diteggiamo la quarta corda al quarto tasto, otteniamo la nota "Fa#". Se diteggiamo la quarta corda al quinto tasto, otteniamo la nota "Sol".

Se suoniamo la quinta corda a vuoto otteniamo la nota "La". Se diteggiamo la quinta corda al primo tasto e la plettriamo, otteniamo la nota "La#". Se diteggiamo la quinta corda al secondo tasto e la plettriamo, otteniamo la nota "Si". Se diteggiamo la quinta corda al terzo tasto e la plettriamo, otteniamo la nota "Do". Se diteggiamo la quinta corda al quarto tasto e la plettriamo, otteniamo la nota "Do#". Se diteggiamo la quinta corda al quinto tasto e la plettriamo, otteniamo la nota "Re".

Se suoniamo la sesta corda a vuoto, otteniamo la nota "Mi". Se diteggiamo la sesta corda al primo tasto e la plettriamo, otteniamo la nota "Fa". Se diteggiamo la sesta corda al secondo tasto e la plettriamo, otteniamo la nota "Fa#". Se diteggiamo la sesta corda al terzo tasto e la plettriamo, otteniamo la nota "Sol". Se diteggiamo la sesta corda al quarto tasto e la plettriamo, otteniamo la nota "Sol#". Se diteggiamo la sesta corda al quinto tasto e la plettriamo, otteniamo la nota "La".

Suono, ad esempio, la terza corda a vuoto, producendo la nota "Sol":

TAB:

-----------------------------------------------------------
-----------------------------------------------------------
-------------------------0-------------------------------- <------terza corda a vuoto
-----------------------------------------------------------
-----------------------------------------------------------
-----------------------------------------------------------

PENTAGRAMMA:

------------------------------------------- <-----quinta linea
------------------------------------------- <-----quarto spazio
------------------------------------------- <-----quarta linea
------------------------------------------- <-----terzo spazio
------------------------------------------- <-----terza linea
------------------------------------------- <-----secondo spazio
--------------@---(sol)---------------------- <-----seconda linea
------------------------------------------- <-----primo spazio
------------------------------------------- <-----prima linea

Diteggio la terza corda al primo tasto e plettro la stessa corda producendo la nota "Sol#":

TAB:

-----------------------------------------------------------
-----------------------------------------------------------
-----------------------------1---------------------------- <------terza corda, I° tasto
-----------------------------------------------------------
-----------------------------------------------------------
-----------------------------------------------------------

PENTAGRAMMA:

------------------------------------------- <-----quinta linea
------------------------------------------- <-----quarto spazio
------------------------------------------- <-----quarta linea
------------------------------------------- <-----terzo spazio
------------------------------------------- <-----terza linea
------------------------------------------- <-----secondo spazio
--------------@#---(sol#)-------------------- <-----seconda linea
------------------------------------------- <-----primo spazio
------------------------------------------- <-----prima linea

Diteggio la terza corda al secondo tasto e plettro la stessa corda, producendo la nota "La":

TAB:

-----------------------------------------------------------
-----------------------------------------------------------
-----------------------------2----------------------------- <---terza corda, II° tasto
-----------------------------------------------------------
-----------------------------------------------------------
-----------------------------------------------------------

PENTAGRAMMA:

------------------------------------------- <-----quinta linea
------------------------------------------- <-----quarto spazio
------------------------------------------- <-----quarta linea
------------------------------------------- <-----terzo spazio
------------------------------------------- <-----terza linea
----------------@--("LA")-------------------- <-----secondo spazio
------------------------------------------- <-----seconda linea
------------------------------------------- <-----primo spazio
------------------------------------------- <-----prima linea

Diteggio la terza corda al terzo tasto e plettro la stessa corda, producendo la nota "La#":

TAB:

-----------------------------------------------------------
-----------------------------------------------------------
-----------------------------3---------------------------- <---terza corda, III° tasto
-----------------------------------------------------------
-----------------------------------------------------------
-----------------------------------------------------------

PENTAGRAMMA:

------------------------------------------- <-----quinta linea
------------------------------------------- <-----quarto spazio
------------------------------------------- <-----quarta linea
------------------------------------------- <-----terzo spazio
------------------------------------------- <-----terza linea
----------------@#--(LA#)------------------ <-----secondo spazio
------------------------------------------- <-----seconda linea
------------------------------------------- <-----primo spazio
------------------------------------------- <-----prima linea

Diteggio la terza corda al quarto tasto e plettro la stessa corda, producendo la nota "Si":

TAB:

-----------------------------------------------------------
-----------------------------------------------------------
----------------------------4----------------------------- <---terza corda, IV° tasto
-----------------------------------------------------------
-----------------------------------------------------------
-----------------------------------------------------------

PENTAGRAMMA:

------------------------------------------- <-----quinta linea
------------------------------------------- <-----quarto spazio
------------------------------------------- <-----quarta linea
------------------------------------------- <-----terzo spazio
---------------@---(SI)---------------------- <-----terza linea
------------------------------------------- <-----secondo spazio
------------------------------------------- <-----seconda linea
------------------------------------------- <-----primo spazio
------------------------------------------- <-----prima linea

Diteggio la terza corda al quinto tasto e plettro la corda, producendo la nota "Do":

TAB:

-----------------------------------------------------------
-----------------------------------------------------------
------------------------------5--------------------------- <---terza corda, V° tasto
-----------------------------------------------------------
-----------------------------------------------------------
-----------------------------------------------------------

PENTAGRAMMA:

------------------------------------------- <-----quinta linea
------------------------------------------- <-----quarto spazio
------------------------------------------- <-----quarta linea
------------------@---(DO)------------------- <-----terzo spazio
------------------------------------------- <-----terza linea
------------------------------------------- <-----secondo spazio
------------------------------------------- <-----seconda linea
------------------------------------------- <-----primo spazio
------------------------------------------- <-----prima linea

Diteggio la terza corda la sesto tasto e plettro la stessa corda, producendo la nota "Do#":

TAB:

-----------------------------------------------------------
-----------------------------------------------------------
----------------------------6----------------------------- <---terza corda, VI° tasto
-----------------------------------------------------------
-----------------------------------------------------------
-----------------------------------------------------------

PENTAGRAMMA:

------------------------------------------- <-----quinta linea
------------------------------------------- <-----quarto spazio
------------------------------------------- <-----quarta linea
------------------@#---(DO#)----------------- <-----terzo spazio
------------------------------------------- <-----terza linea
------------------------------------------- <-----secondo spazio
------------------------------------------- <-----seconda linea
------------------------------------------- <-----primo spazio
------------------------------------------- <-----prima linea

Diteggio la terza corda al settimo tasto e plettro la stessa corda, producendo la nota "Re":

TAB:

-----------------------------------------------------------
-----------------------------------------------------------
----------------------------7----------------------------- <---terza corda, VII° tasto
-----------------------------------------------------------
-----------------------------------------------------------
-----------------------------------------------------------

PENTAGRAMMA:

------------------------------------------- <-----quinta linea
------------------------------------------- <-----quarto spazio
--------------@---(RE)----------------------- <-----quarta linea
------------------------------------------- <-----terzo spazio
------------------------------------------- <-----terza linea
------------------------------------------- <-----secondo spazio
------------------------------------------- <-----seconda linea
------------------------------------------- <-----primo spazio
------------------------------------------- <-----prima linea

Si vede chiaramente che ogni volta che si avanza sulla tastiera di un tasto (spostandoci da sinistra verso destra), si sale di un semitono sul Pentagramma (viceversa, ogni volta che ci si sposta di un tasto da destra verso sinistra, si scende di un semitono).

In questo modo è facile ricavarsi sia i nomi di tutte le 150 note della tastiera della chitarra elettrica (24 tasti X 6 corde = 144 note + 6 note prodotte dalle corde a vuoto = 150 note totali), sia la loro esatta altezza sul pentagramma.

Tutto questo ci permette di fare due cose molto interessanti:

1) possiamo tradurre una TAB in PENTAGRAMMA;

2) possiamo tradurre un PENTAGRAMMA (in Chiave di Sol) in TAB.

In pratica, se noi abbiamo tra le mani un pezzo scritto per esempio per flauto dolce, possiamo facilmente suonarlo con la chitarra ricavandoci la TAB.

Hai dei dubbi? Chiedi sul forum!!!
Consigli per gli Acquisti

Cerca su CDS
Condividi CDS su FaceBook

Aiutaci a far conoscere CDS anche ai tuoi amici, chitarristi e non... diffondiamo la MUSICA!

Partner CDS

Acquari Low Cost
Consigli per investire

Contatti

Per conttatarmi puoi scrivermi qui: andreacatarsi77(chiocciola)gmail.com


© 2005-2014 Copyright Chitarradaspiaggia.com - Assolutamente vietata la riproduzione anche solo parziale dei contenuti del sito se non attraverso esplicito consenso dell'autore