Canzoniere classici da spiaggia - Testi Accordi tab chords

In questa sezione potrete trovare le raccolte dei canzonieri (song book) suddivise per artisti, con accordi, TAB, testi, chords di tutte le canzoni del forum e del sito CDS.
La sezione è di sola lettura, modifiche ed aggiunta di canzonieri sono permesse solo a moderatori e amministratore.

Canzoniere classici da spiaggia - Testi Accordi tab chords

Messaggiodi SoundOfDreams

Pongo qui tutti i classici da spiaggia con relativi link, quindi con Testi, Accordi, guitar tab chords

Vi consiglio anche questo libro: http://amzn.to/2bwwRvy

Ogni post sarà una canzone...

se avete perplessità non postate qui..

cliccate nel link e vi porterà nel topic dove poter discutere.


SoundOfDreams
 
Messaggi: 12638
Località: Villa Literno (Caserta)


Messaggiodi SoundOfDreams

Wish You Were Here-Pink Floyd
Em / G / Em / G / Em / Am7 / Em / Am7 / G / G

C D Am G
So, so you think you can tell, heaven from hell? Blue skies from pain?

D C Am
Can you tell a green field, from a cold steel rail? A smile from a veil?

G C D
Do you think you can tell? Did they get you to trade, your heroes for ghosts?

Am G D
Hot ashes for trees? Hot air for a cool breeze? Cold comfort for change

C Am G
And did you exchange, a walk-on part in the war, for a lead role in a cage...

(guitar solo - repeat intro)


C D
How I wish, how I wish you were here

Am G D
We're just two lost souls swimming in a fishbowl, year after year

C Am
Running over the same old ground, what have we found - the same old fears?

G
Wish you were here

Top
http://chitarradaspiaggia.com/forum/viewtopic.php?t=34


SoundOfDreams
 
Messaggi: 12638
Località: Villa Literno (Caserta)

Messaggiodi SoundOfDreams

Thing have changed- Bob Dylan
b]Intro: B7 Em[/b]

Em
A worried man with a worried mind
Am
No one in front of me and nothing behind
Em--------------------------------------B7
There's a woman on my lap and she's drinkin' champagne
Em
Got white skin, got assassin's eyes
Am
I'm looking up into the sapphire tinted skies
Em--------------------------B7---Em
I'm well dressed, waiting on the last train
C---------------------------B7--------Em
Standin' on the gallows with my head in the noose
C--------------------------------------B7
Any minute now I'm expectin' all hell to break loose


Chorus:
Em
People are crazy and times are strange
------Am
I'm locked in tight, I'm out of range
Em---------------B7---------Em
I used to care but, things have changed
Em---Am---Em---Em


This place ain't doin' me any good
I'm in the wrong town I should've been in Hollywood
Just for a second there, I thought I saw something move
Gonna take dancin' lessons, do the jitterbug rag
Ain't no shortcuts, gonna dress in drag
Only a fool in here would think he's got anythin' to prove
Lotta water under the bridge, lotta other stuff too
Don't get up gentlemen, I'm only passing through


Chorus


I've been walkin' forty miles of bad road
If the Bible is right the world will explode
I'm tryin' to get as far away from myself as I can
Some things are too hot to touch
The human mind can only stand so much
You can't win with a losing hand
Feel like falling in love with the first woman I meet
Puttin' her in a wheelbarrow and wheelin' her down the street


Chorus


I hurt easy I just don't show it
You can hurt someone and not even know it
The next sixty seconds could be like an eternity
Gonna get lowdown, gonna fly high
All the truth in the world adds up to one big lie
I'm in love with a woman that don't even appeal to me
Mr. Jinx and Miss Lucy they jumped in a lake
I'm not that eager to make a mistake

----------------------------------------------------------------------


il ritmo è con lo stop, come nel blues...anzi direi che se ci volete mettere esattamente il ritmo che ho proposto per il blues va benissimo:
blues ritmo con stop sulle corde

vi traduco qui gli accordi internazionali:

Em = mi minore
Am = la minore
B7 = si maggiore settima
C = do maggiore

il si maggiore settima è nuovo, mai spiegato, eccolo:

Immagine

c'è un però...se volete farlo senza barrè, con la mia modifica, ecco l'accordo:

Immagine

sicuramente non è più semplice del barrè, ma il suono in confronto è molto più bello, completo e ricco di sonorità :)

se proprio così non vi riesce, togliete il mignolino...

Immagine

una volta imparato e capito il giro: mi minore, la minore, mi minore, si7 siamo quasi a posto...

il tempo è 4/4: 8 pennate per il mi minore, 8 per il la minore, 6 pennate di nuovo sul mi minore e poi 2 pennate sul si7...per tornare sul mi minore e ricominciare il giro (provate ad abbozzarci sopra la melodia del cantato...)

il si7 fa da accordo di passaggio per tornare al mi minore con gusto :)

http://chitarradaspiaggia.com/forum/viewtopic.php?t=105


SoundOfDreams
 
Messaggi: 12638
Località: Villa Literno (Caserta)


Messaggiodi SoundOfDreams

Knockin on heaven's door-Bon dylan

SOL-------RE----------LAm7
Mama, take this badge off of me
SOL-----RE-------DO
I can't use it anymore.
SOL--------RE--------------LAm7
It's gettin' dark, too dark to see
SOL----------RE--------------DO
I feel like I'm knockin' on heaven's door.

Knock, knock, knockin' on heaven's door
Knock, knock, knockin' on heaven's door
Knock, knock, knockin' on heaven's door
Knock, knock, knockin' on heaven's door

Mama, put my guns in the ground
I can't shoot them anymore.
That long black cloud is comin' down
I feel like I'm knockin' on heaven's door.

Knock, knock, knockin' on heaven's door
Knock, knock, knockin' on heaven's door
Knock, knock, knockin' on heaven's door
Knock, knock, knockin' on heaven's door

In realtà, per chi vuole aumentare la dose di esercizi, i Guns l’hanno riproposta in versione rokkeggiante... e l’assolo di Slash si basa su questa scala: la Pentatonica…

----1-------4 ----Mi cantino
----1-----3----
----1-----3----
----1-----3----
----1-----3----
----1-------4 ----Mi basso

dove l’1 sta per l’indice, il 3 per l’anulare ed il 4 per il mignolo. L’esercizio va svolto suonando ogni singola nota per ogni corda a tempo. 1-4-1-3-1-3-1-3-1-3-1-4… prima dal basso e poi dall’alto e/o viceversa…
Non ho volutamente inserito la posizione sul manico… perché è una scala che si può trasportare… cioè si può suonare sia dal primo tasto al quarto che, ad esempio, dal dodicesimo al quindicesimo (posizione peraltro dove viene suonato l’assolo di Slash…) Nulla vieta di farla ancha al contraio... anzi... 4-1-3-1-3-1...ecc..ecc

video http://www.chitarradaspiaggia.com/canzone-bob-dylan.php


Topic originale: http://chitarradaspiaggia.com/forum/viewtopic.php?t=52


SoundOfDreams
 
Messaggi: 12638
Località: Villa Literno (Caserta)

Messaggiodi SoundOfDreams

wake me up when september ends-Green day

Wake Me Up When September Ends"

Summer has come and passed
The innocent can never last
wake me up when september ends

like my fathers come to pass
seven years has gone so fast
wake me up when september ends

here comes the rain again
falling from the stars
drenched in my pain again
becoming who we are

as my memory rests
but never forgets what I lost
wake me up when september ends

summer has come and passed
the innocent can never last
wake me up when september ends

ring out the bells again
like we did when spring began
wake me up when september ends

here comes the rain again
falling from the stars
drenched in my pain again
becoming who we are

as my memory rests
but never forgets what I lost
wake me up when september ends

Summer has come and passed
The innocent can never last
wake me up when september ends

like my father's come to pass
twenty years has gone so fast
wake me up when september ends
wake me up when september ends
wake me up when september ends


L'estate è venuta ed è passata
L'innocente non può mai durare
Svegliami quando finisce settembre
Così come è venuto e passato mio padre
sette anni sono volati in fretta
Svegliami quando settembre è finito

Ecco di nuovo la pioggia
che cade dalle stelle
immerso di nuovo nel mio dolore
Diventando chi siamo

Come la mia memoria si riposa
Ma non dimentica mai quello che ho perso
Svegliami quando settembre è finito

Come la mia memoria si riposa
Ma non dimentica mai quello che ho perso
Svegliami quando settembre è finito

Le campane suonano ancora
come abbiamo fatto noi
quando è iniziata la primavera
Svegliami quando finisce settembre

Ecco di nuovo la pioggia
che cade dalle stelle
immerso di nuovo nel mio dolore
Diventando chi siamo

Come la mia memoria si riposa
Ma non dimentica mai quello che ho perso
Svegliami quando settembre è finito

Come la mia memoria si riposa
Ma non dimentica mai quello che ho perso
Svegliami quando settembre è finito

Così come è venuto e passato mio padre
venti anni sono volati in fretta
Svegliami quando settembre è finito

Svegliami quando settembre è finito
Svegliami quando settembre è finito
Svegliami quando settembre è finito

Green Day
Wake Me Up When September Ends

E|--------------||
B|---3---3------||
G|--0---0-------||
D|-5---5--------||
A|--------------||
E|--------------|| x4
Acoustic Guitar.

E|---------------|---------------|---------------|---------------||
B|------3-----3--|------3-----3--|------3-----3--|------3-----3--||
G|----0-----0----|----0-----0----|----0-----0----|----0-----0----||
D|--5-----5------|--4-----4------|--2-----2------|--0-----0------||
A|---------------|---------------|---------------|---------------||
E|---------------|---------------|---------------|---------------||
"Summer Has Come...."

E|-----------------|-----------------|-----------------|-----------------||
B|------5-----5----|------4-----4----|-----3------3----|------3-----3----||
G|----5---5-----5--|----5---5-----5--|---0---0------0--|----0---0-----0--||
D|-----------------|-----------------|-----------------|-----------------||
A|--3-------3------|--3-------3------|-----------------|-----------------||
E|-----------------|-----------------|--3-------3------|--3-------3------||
"Wake Me Up When...."
E|---------------|---------------|---------------|---------------||
B|------3-----3--|------3-----3--|------3-----3--|------3-----3--||
G|----0-----0----|----0-----0----|----0-----0----|----0-----0----||
D|--5-----5------|--4-----4------|--2-----2------|--0-----0------||
A|---------------|---------------|---------------|---------------||
E|---------------|---------------|---------------|---------------||
"Like My Father...."

E|---------------|---------------|---------------|----------------||
B|-----5-----5---|-----4-----4---|----3------3---|-----3------0---||
G|---5---5-----5-|---5---5-----5-|--0---0------0-|---0---0---0--0-||
D|---------------|---------------|---------------|----------------||
A|-3-------3-----|-3-------3-----|---------------|----------------||
E|---------------|---------------|-3-------3-----|-3-------2------||
"Wake Me Up When...."

E|----------------|-----------------|----------------|----------------||
B|-----0-----0----|-----3------3----|-----5-----5----|-----3-------0--||
G|---0---0-----0--|---0---0------0--|---0---0-----0--|---0---0---0---0||
D|----------------|-----------------|----------------|----------------||
A|----------------|-2-------2-------|-3-------3------|----------------||
E|-0-------0------|-----------------|----------------|-3-------2------||
"Here Comes The Rain...."

E|----------------|-----------------|----------------|----------------||
B|-----0-----0----|-----3------3----|-----5-----5----|-----7-------7--||
G|---0---0-----0--|---0---0------0--|---0---0-----0--|---0---0---0---0||
D|----------------|-----------------|----------------|----------------||
A|----------------|-2-------2-------|-3-------3------|-5------5-------||
E|-0-------0------|-----------------|----------------|----------------||
"Drenched In My...."

E|---------------|---------------|---------------|---------------||
B|------3-----3--|------3-----3--|------3-----3--|------3-----3--||
G|----0-----0----|----0-----0----|----0-----0----|----0-----0----||
D|--5-----5------|--4-----4------|--2-----2------|--0-----0------||
A|---------------|---------------|---------------|---------------||
E|---------------|---------------|---------------|---------------||
"Ring Out The....""

E|-----------------|-----------------|-----------------|-----------------||
B|------5-----5----|------4-----4----|-----3------3----|------3-----3----||
G|----5---5-----5--|----5---5-----5--|---0---0------0--|----0---0-----0--||
D|-----------------|-----------------|-----------------|-----------------||
A|--3-------3------|--3-------3------|-----------------|-----------------||
E|-----------------|-----------------|--3-------3------|--3-------3------||
"Wake Me Up When...."

E|--------------||
B|------3-----3-||
G|----0-----0---||
D|--5-----5-----||
A|--------------||
E|--------------|| x2

E|--------------||
B|------3-----3-||
G|----0-----0---||
D|--5-----5-----||
A|--------------||
E|--------------|| x2
Slightly Distorted

E|---------------|---------------|---------------|---------------||
B|------3-----3--|------3-----3--|------3-----3--|------3-----3--||
G|----0-----0----|----0-----0----|----0-----0----|----0-----0----||
D|--5-----5------|--4-----4------|--2-----2------|--0-----0------||
A|---------------|---------------|---------------|---------------||
E|---------------|---------------|---------------|---------------||
(Still Slightly Distorted)"Summer Has Come...."

E|-----------------|-----------------|-----------------|-----------------||
B|-----------------|-----------------|-----------------|-----------------||
G|-5-5-5-5-5-5-5-5-|-5-5-5-5-5-5-5-5-|-----------------|-----------------||
D|-5-5-5-5-5-5-5-5-|-5-5-5-5-5-5-5-5-|-5-5-5-5-5-5-5-5-|-5-5-5-5-5-5-5-5-||
A|-3-3-3-3-3-3-3-3-|-3-3-3-3-3-3-3-3-|-5-5-5-5-5-5-5-5-|-5-5-5-5-5-5-5-5-||
E|---------------- |-----------------|-3-3-3-3-3-3-3-3-|-3-3-3-3-3-3-3-3-||
(Full Distortion) "Wake Me Up When...."

E|---------------|---------------|---------------|---------------||
B|------3-----3--|------3-----3--|------3-----3--|------3-----3--||
G|----0-----0----|----0-----0----|----0-----0----|----0-----0----||
D|--5-----5------|--4-----4------|--2-----2------|--0-----0------||
A|---------------|---------------|---------------|---------------||
E|---------------|---------------|---------------|---------------||
(Still Slightly Distorted)"Like My Father...."

E|-----------------|-----------------|-----------------|-----------------||
B|-----------------|-----------------|-----------------|-----------------||
G|-5-5-5-5-5-5-5-5-|-5-5-5-5-5-5-5-5-|-----------------|-----------------||
D|-5-5-5-5-5-5-5-5-|-5-5-5-5-5-5-5-5-|-5-5-5-5-5-5-5-5-|-5-5-5-5-4-4-4-4-||
A|-3-3-3-3-3-3-3-3-|-3-3-3-3-3-3-3-3-|-5-5-5-5-5-5-5-5-|-5-5-5-5-4-4-4-4-||
E|---------------- |-----------------|-3-3-3-3-3-3-3-3-|-3-3-3-3-2-2-2-2-||
(Full Distortion) "Wake Me Up When...."

Chorus - Still Fully Distoted
E|-----------------|-----------------|-----------------|-----------------||
B|-----------------|-----------------|-----------------|-----------------||
G|-----------------|-4-4-4-4-4-4-4-4-|-5-5-5-5-5-5-5-5-|-----------------||
D|-2-2-2-2-2-2-2-2-|-4-4-4-4-4-4-4-4-|-5-5-5-5-5-5-5-5-|-5-5-5-5-4-4-4-4-||
A|-2-2-2-2-2-2-2-2-|-2-2-2-2-2-2-2-2-|-3-3-3-3-3-3-3-3-|-5-5-5-5-4-4-4-4-||
E|-0-0-0-0-0-0-0-0-|-----------------|-----------------|-3-3-3-3-2-2-2-2-||
"Here Comes The Rain...."

E|-----------------|-----------------|-----------------|-----------------||
B|-----------------|-----------------|-----------------|-----------------||
G|-----------------|-4-4-4-4-4-4-4-4-|-5-5-5-5-5-5-5-5-|-7-7-7-7-7-7-7-7-||
D|-2-2-2-2-2-2-2-2-|-4-4-4-4-4-4-4-4-|-5-5-5-5-5-5-5-5-|-7-7-7-7-7-7-7-7-||
A|-2-2-2-2-2-2-2-2-|-2-2-2-2-2-2-2-2-|-3-3-3-3-3-3-3-3-|-5-5-5-5-5-5-5-5-||
E|-0-0-0-0-0-0-0-0-|-----------------|-----------------|-----------------||
"drenched In My Pain....."

E|---------------|---------------|---------------|---------------||
B|------3-----3--|------3-----3--|------3-----3--|------3-----3--||
G|----0-----0----|----0-----0----|----0-----0----|----0-----0----||
D|--5-----5------|--4-----4------|--2-----2------|--0-----0------||
A|---------------|---------------|---------------|---------------||
E|---------------|---------------|---------------|---------------||
(Still Slightly Distorted)"Like My Father...."

E|-----------------|-----------------|-----------------|-----------------||
B|-----------------|-----------------|-----------------|-----------------||
G|-5-5-5-5-5-5-5-5-|-5-5-5-5-5-5-5-5-|-----------------|-----------------||
D|-5-5-5-5-5-5-5-5-|-5-5-5-5-5-5-5-5-|-5-5-5-5-5-5-5-5-|-5-5-5-5-4-4-4-4-||
A|-3-3-3-3-3-3-3-3-|-3-3-3-3-3-3-3-3-|-5-5-5-5-5-5-5-5-|-5-5-5-5-4-4-4-4-||
E|---------------- |-----------------|-3-3-3-3-3-3-3-3-|-3-3-3-3-2-2-2-2-||
(Full Distortion) "Wake Me Up When...."

Solo Time!
Gtr.1
E|-----7-----7---7-|-----7-----7---7-|-----8-----8---8-|-----------------||
B|-8-8---8-8---8---|-7-7---7-7---7---|-8-8---8-8---8---|-8-8-8-8-7-7-7-7-||
G|-----------------|-----------------|-----------------|-----------------||
D|-----------------|-----------------|-----------------|-----------------||
A|-----------------|-----------------|-----------------|-----------------||
E|-----------------|-----------------|-----------------|-----------------||
Gtr.2
E|-----------------|-----------------|-----------------|-----------------||
B|-----------------|-----------------|-----------------|-----------------||
G|-----------------|-4-4-4-4-4-4-4-4-|-5-5-5-5-5-5-5-5-|-----------------||
D|-2-2-2-2-2-2-2-2-|-4-4-4-4-4-4-4-4-|-5-5-5-5-5-5-5-5-|-5-5-5-5-4-4-4-4-||
A|-2-2-2-2-2-2-2-2-|-2-2-2-2-2-2-2-2-|-3-3-3-3-3-3-3-3-|-5-5-5-5-4-4-4-4-||
E|-0-0-0-0-0-0-0-0-|-----------------|-----------------|-3-3-3-3-2-2-2-2-||
Gtr.1
E|-----7-----7---7-|-----7-----7---7-|-----8-----8---8-||
B|-8-8---8-8---8---|-7-7---7-7---7---|-8-8---8-8---8---||
G|-----------------|-----------------|-----------------||
D|-----------------|-----------------|-----------------||
A|-----------------|-----------------|-----------------||
E|-----------------|-----------------|-----------------||
Gtr.2
E|-----------------|-----------------|-----------------||
B|-----------------|-----------------|-----------------||
G|-----------------|-4-4-4-4-4-4-4-4-|-5-5-5-5-5-5-5-5-||
D|-2-2-2-2-2-2-2-2-|-4-4-4-4-4-4-4-4-|-5-5-5-5-5-5-5-5-||
A|-2-2-2-2-2-2-2-2-|-2-2-2-2-2-2-2-2-|-3-3-3-3-3-3-3-3-||
E|-0-0-0-0-0-0-0-0-|-----------------|-----------------||
Gtr.2
E|-----------------|-----------------|
B|-----------------|-----------------|
G|-7-7-7-7-7-7-7-7-|-7-7-7-7-7-7-7-7-|
D|-7-7-7-7-7-7-7-7-|-7-7-7-7-7-7-7-7-|
A|-5-5-5-5-5-5-5-5-|-5-5-5-5-5-5-5-5-|
E|-----------------|-----------------|x2

E|-----------------|-----------------|
B|-8-8-8-8-8-8-8-8-|-7-7-7-7-7-7-7-7-|
G|-----------------|-----------------|
D|-----------------|-----------------|
A|-----------------|-----------------|
E|-----------------|-----------------| x2

E|--------------||
B|------3-----3-||
G|----0-----0---||
D|--5-----5-----||
A|--------------||
E|--------------|| x4
Accoustic Gtr.1

E|-10------|-10------|-10------|-10---15--||
B|------8--|------8--|------8--|----------||
G|---------|---------|---------|----------||
D|---------|---------|---------|----------||
A|---------|---------|---------|----------||
E|---------|---------|---------|----------|| x2
Clean - Gtr.2
E|---------------|---------------|---------------|---------------||
B|------3-----3--|------3-----3--|------3-----3--|------3-----3--||
G|----0-----0----|----0-----0----|----0-----0----|----0-----0----||
D|--5-----5------|--4-----4------|--2-----2------|--0-----0------||
A|---------------|---------------|---------------|---------------||
E|---------------|---------------|---------------|---------------||
(Accoustic)"Summer Has Come...."

E|-----------------|-----------------|-----------------|-----------------||
B|-----------------|-----------------|-----------------|-----------------||
G|-5-5-5-5-5-5-5-5-|-5-5-5-5-5-5-5-5-|-----------------|-----------------||
D|-5-5-5-5-5-5-5-5-|-5-5-5-5-5-5-5-5-|-5-5-5-5-5-5-5-5-|-5-5-5-5-5-5-5-5-||
A|-3-3-3-3-3-3-3-3-|-3-3-3-3-3-3-3-3-|-5-5-5-5-5-5-5-5-|-5-5-5-5-5-5-5-5-||
E|---------------- |-----------------|-3-3-3-3-3-3-3-3-|-3-3-3-3-3-3-3-3-||
(Full Distortion) "Wake Me Up When...."

E|---------------|---------------|---------------|---------------||
B|------3-----3--|------3-----3--|------3-----3--|------3-----3--||
G|----0-----0----|----0-----0----|----0-----0----|----0-----0----||
D|--5-----5------|--4-----4------|--2-----2------|--0-----0------||
A|---------------|---------------|---------------|---------------||
E|---------------|---------------|---------------|---------------||
(Still Slightly Distorted)"Like My Father...."

E|-----------------|-----------------|-----------------|-----------------||
B|-----------------|-----------------|-----------------|-----------------||
G|-5-5-5-5-5-5-5-5-|-5-5-5-5-5-5-5-5-|-----------------|-----------------||
D|-5-5-5-5-5-5-5-5-|-5-5-5-5-5-5-5-5-|-5-5-5-5-5-5-5-5-|-5-5-5-5-5-5-5-5-||
A|-3-3-3-3-3-3-3-3-|-3-3-3-3-3-3-3-3-|-5-5-5-5-5-5-5-5-|-5-5-5-5-5-5-5-5-||
E|---------------- |-----------------|-3-3-3-3-3-3-3-3-|-3-3-3-3-3-3-3-3-|| x3
(Full Distortion) "Wake Me Up When...."

E|-----------------|-----------------|-----------------|-----------------||
B|-----------------|-----------------|-----------------|-----------------||
G|-5-5-5-5-5-5-5-5-|-5-5-5-5-5-5-5-5-|-----------------|-----------------||
D|-5-5-5-5-5-5-5-5-|-5-5-5-5-5-5-5-5-|-5-5-5-5-5-5-5-5-|-5~--------------||
A|-3-3-3-3-3-3-3-3-|-3-3-3-3-3-3-3-3-|-5-5-5-5-5-5-5-5-|-5~--------------||
E|---------------- |-----------------|-3-3-3-3-3-3-3-3-|-3~--------------||

http://www.chitarradaspiaggia.com/forum ... &sk=t&sd=a


SoundOfDreams
 
Messaggi: 12638
Località: Villa Literno (Caserta)

Messaggiodi SoundOfDreams

La canzone del sole
Codice: Seleziona tutto
   LA        MI        RE        MI
|-------------------------------------------|
|-------5---------5---------3---------5-----|
|-----6---6-----4---4-----2---3-----4---4---|
|---7---------6---------4---------6---------|   [TAB 1]
|-------------------------------------------|
|-------------------------------------------|
    ^         ^         ^         ^                 ( accentuare queste note )

|-----------------------------------------------|
|-------5---------5---------3---------5---5---5-|   ( <- arpeggiare velocemente)
|-----6---6-----4---4-----2---2-----4---4---4---|   ( queste ultime due note)
|---7---------6---------4---------6-------------|   [TAB 2]
|-----------------------------------------------|
|-----------------------------------------------|
    ^         ^         ^         ^                 ( accentuare queste note )


[TAB 1]
Le bionde trecce gli occhi azzurri e poi
[TAB 2]
le tue calzette rosse,
[TAB 1]
e l'innocenza sulle gote tue
[TAB 2]
due arance ancor più rosse

(a questo punto passare agli accordi convenzionali)
LA MI RE MI
E la cantina buia dove noi
respiravamo piano
e le tue corse l'eco dei tuoi no, oh no
mi stai facendo paura

[TAB 1]
Dove sei stata cosa hai fatto mai ?
[TAB 2]
Una donna, donna, dimmi
[TAB 1]
Cosa vuol dire sono una donna ormai

LA MI RE MI
Ma quante braccia ti hanno stretto, tu lo sai
per diventar quel che sei
che importa tanto tu non me lo dirai, purtroppo
Ma ti ricordi l'acqua verde e noi
le rocce bianco il fondo
di che colore sono gli occhi tuoi
se me lo chiedi non rispondo

[TAB 1]
O mare nero, o mare nero, o mare ne....
[TAB 2]
tu eri chiara e trasparente come me ( x2 )


         [TAB 1]
Le biciclette abbandonate sopra il prato e poi
[Tab 2]
noi due distesi all'ombra
(etc............)



http://chitarradaspiaggia.com/forum/viewtopic.php?t=38


SoundOfDreams
 
Messaggi: 12638
Località: Villa Literno (Caserta)

Messaggiodi SoundOfDreams

sei nell'anima-gianna nannini

Codice: Seleziona tutto
Sol            Do        Sol
Vado punto e a capo così
             Do                  Sol
spegnerò le luci e poi qui sparirai
      Do     Sol
pochi attimi
             Do     Sol
oltre questa nebbia
              Do    Sol
oltre il temporale
               Do          Sol
c'è una notte lunga e limpida
     Do
finirà

Mi-               Do
ma è la tenerezza
              Re.
e ci fa paura

             Sol
Sei nell'anima
                   Do
e lì ti lascio per sempre
              La-
sospeso immobile

fermo immagine
                 Re
un segno che non passa mai



Sol            Do          Sol
Vado punto e a capo vedrai
               Do             Sol
quel che resta indietro non è
               Do     Sol
tutto falso e inutile
        Do Sol
capirai
                Do     Sol
Lascio andare i giorni
                Do    Sol
tra certezze e sbagli
             Do              Sol
è una strada stretta stretta
        Do
fino a te
Mi-              Do
quanta tenerezza
                 Re.
non fa più paura
             Sol
Sei nell'anima
                   Do
e lì ti lascio per sempre
                     La-
sei in ogni parte di me

ti sento scendere
                Re
fra respiro e battito
             Sol
sei nell'anima

Do La- Re (Strum.)

             Sol
Sei nell'anima
                      Do
in questo spazio indifeso
                 La-
inizia tutto con te

non ci serve un perchè
                Re
siamo carne e fiato
                 Sol
nananananananana
                 Do
nananananananana
                 Sol
nananananananana
                                 Do
goccia a goccia nananananananana
                                 Do
fianco a fianco nananananananana
                 Sol
nananananananana
                 Do
nananananananana
                 Sol
nananananananana

http://chitarradaspiaggia.com/forum/viewtopic.php?t=203


SoundOfDreams
 
Messaggi: 12638
Località: Villa Literno (Caserta)

Messaggiodi SoundOfDreams

Hai un momento Dio--Ligabue

Codice: Seleziona tutto
[Intro]
(chitarra acustica)

e:--------------------|--------------------------|
B:--------------------|--------0--------0--------|
G:--------------------|-----0--------0--------0--|
D:----------------0-2/|--3--------3--------3-----|
A:--------------------|--------------------------|
E:--------------------|--------------------------|


--------------------------|--------------------------|
--------0--------0--------|--------0--------3-----0--|
-----0--------0--------0--|-----0--------0-----------|
--2--------2--------2-----|--3--------3--------3-----|
--------------------------|--------------------------|
--------------------------|--------------------------|

                             G
--------------------------|--3---------------------|
--------0-----------------|--3------1--1--0--------|
-----0--------------------|--0------0--------2--0--|
--2--------2/-3\-2--0-----|--0---------------------|
-----------------------3--|--2---------------------|
--------------------------|--3---------------------|

  C        Am          G                       C        Am
--0--------0--------|--3--------------------|--0--------0--------|
--1--------1--------|--3--------1--0--------|--1--------1--------|
--0--------2--------|--0--------------2--0--|--0--------2--------|
--2--------2--------|--0--------------------|--2--------2--------|
--3--------0--------|--2--------------------|--3--------0--------|
--0--------0--------|--3--------------------|--0--------0--------|


       G  D      C  Am
percio'   paghi Te.
G             D
Che tu sia un angelo
      C       Am
od un diavolo
G        D         C   Am
ho tre domande per Te:
G              D
chi prende l'Inter
  C       Am
dove mi porti
         G          D
e poi di', soprattutto,
     C
perche'?
    D
Perche'
                      Am     C
ci dovra' essere un motivo, no?
    D
Perche'
                   Am
forse la vita la capisce
            C
chi e' piu' pratico.
G        D       C
Hai un momento Dio?
Am          G
No, perche' sono qua
D             C         D4 D
insomma ci sarei anch'io.
G        D       C
Hai un momento Dio?
  Am           G
O Te o chi per Te
         D          C
avete un attimo per me.

http://chitarradaspiaggia.com/forum/viewtopic.php?t=331


SoundOfDreams
 
Messaggi: 12638
Località: Villa Literno (Caserta)

Messaggiodi SoundOfDreams

Una vita da Mediano-Ligabue
Codice: Seleziona tutto
Sol
Una vita da mediano
Re
A recuperar palloni
La-
Nato senza i piedi buoni
Do
A lavorare sui polmoni
Una vita da mediano
Con dei compiti precisi
A coprire certe zone
A giocare generosi


Sempre lì
Lì nel mezzo
Finchè cen'hai stai lì

Una vita da mediano
Da chi segna sempre poco
Che il pallone devi darlo a chi
finalizza il gioco
Una vita da mediano
Che natura non ti ha dato
Ma lo spunto della punta
Vede il 10 che peccato


Sempre lì
Lì nel mezzo
Finchè cen'hai stai lì
Stai lì
Sempre lì
Lì nel mezzo
Finchè cen'hai
Finche cen'hai
Stai lì

Una vita da mediano
Da uno che si brucia presto
Perché quando hai dato troppo
Devi andare e fare posto
Una vita da mediano
Lavorando come Oriali
Anni di fatica e botte e
vinci casomai i mondiali


Sempre lì
Lì nel mezzo
Finchè cen'hai stai lì
Stai lì
Sempre lì
Lì nel mezzo
Finchè cen'hai
Finche cen'hai
Stai lì

http://chitarradaspiaggia.com/forum/viewtopic.php?t=496


SoundOfDreams
 
Messaggi: 12638
Località: Villa Literno (Caserta)

Messaggiodi SoundOfDreams

You're beutiful-James Blunt
G D5/Em/C
My life is brilliant

G
My life is brilliant
D5
My love is pure
Em
I saw an angel
C
Of that im sure
G
She smiled at me on the subway
D5
She was with another man
Em
But I wont lose any sleep on that
C
Cause iv got a plan


Chorus:
C D5
You're beautiful
G
You're beautiful
C D5 G
You're beautiful its true
C D5
I saw you're face
G D5 Em
In a crowded place
C D5 Em
An I dont know what to DO
C D5 G
Cause I'll never be with you



Verse 2:
G
Yes she caught my eye
D5
As I walked on by
Em
she could see by my face that I was
C
Flying high
G D5
An I dont think that I'll see her again
Em C
But we shared a moment that will last to the end


vERSE 2:
C D5
You're beautiful
G
You're beautiful
C D5 G
You're beautiful its true
C D5
I saw you're face
G D5 Em
In a crowded place
C D5 Em
An i dont know what to DO
C D5 G
Cause I'll never be with you

C Em C Em
NA NA NA NA NA NA
C Em D5
NA NA NA


C D5
You're beautiful
G
You're beautiful
C D5 G
You're beautiful its true
c D5
There must be an angel
G D5 Em
With a smile on her face
C D5 G/D5/Em
When she thought up I should be with you

C D5 Em
But its time to face the truth
C D5 G
I will never be with you
http://chitarradaspiaggia.com/forum/vie ... 0&start=50


SoundOfDreams
 
Messaggi: 12638
Località: Villa Literno (Caserta)

Messaggiodi SoundOfDreams

Codice: Seleziona tutto
NIENTE DI PIU'- Lùnapop
Intro: Do  Fa  Do Fa  Sol

Do
Quello che volevo come sempre non c'è
Fa                                    Do
solo un po' d'amore che diventa polvere

che almeno fosse stata magica

la buttavo su di te
Fa
    e invece ho in mano una lettera due rose
             Do
e una canzone ancora da scrivere
                       Re-
E non mi riesce facile parlare di questo
                   Sol                                              Do
soprattutto adesso, soprattutto adesso che non c'è...
             La7-  La-
che non c'è....
                            Re-
Sarebbe molto più bello per non dire stupendo
            Sol                                                     Do
tornare a dirti quanto ancora ce n'è di bene per te,
    La7-       La-
di bene per te...
                           Re-
Ma in fondo fa lo stesso,
                                                                Sol
in fondo quello che voglio è che tu sia contenta,

vederti sorridere e
              Do  Fa  Do  Fa  Do  Fa  Do  Fa
niente di più...
                                                               Fa-
E invece tu dici che non hai più voglia di me
                                                                Do  Sol  Fa
e invece tu dici che non hai più tempo per me...
                            Do  Sol  Fa  Do  Fa  Sol
Più tempo per me...


(Si ripete tutto da capo fino a "...niente di più..." tralasciando "E invece
tu...")

http://chitarradaspiaggia.com/forum/viewtopic.php?t=622


SoundOfDreams
 
Messaggi: 12638
Località: Villa Literno (Caserta)

Messaggiodi SoundOfDreams

eri bellissima Ligabue

Codice: Seleziona tutto
Am Em G D


Am    Em       G          D
Eri bellissima lasciatelo dire
  Am       Em           G           D
E anche stavolta so che non mi crederai
Am    Em                      G            D
Eri davanti a me davanti agli occhi del bambino
      Am           Em          G            D
E gli occhi del bambino quelli non li danno proprio indietro

Am  Em
Mai
         G    D
Credimi: mai

Am  Em
Mai
         G    D
Ti dico: mai

Am    Em       G            D
Eri sanissima: ostrica e lampone
Am        Em         G             D
Sulle mie dita c'eri sempre e solo te
Am         Em              G          D
Ti davi un attimo e poi ti nascondevi bene
Am        Em           G            D             B7
Io l'ho capito che sei sempre stata grande più di me

Ma adesso dimmi
C
Com'è andata
G
Com'è stato
   B7                         Em
Il viaggio di una vita lì con te?

Io spero solo
C
Tutto bene
G
Tutto come
   B7                    Em
Progettavate voi da piccole
                 C
Stai bene lì con te?
Stai bene lì con te?
                 Am  Em G D
Stai bene lì con    te

Am Em G D

Am        Em      G            D
Fragile e piccola con le tue paure
Am        Em        G           D
Mi costringevi a nasconderti le mie
Am     Em       G             D
Sapevi ridere sapevi il tuo sapore
Am      Em          G          D           B7
Te la godevi ad occupare tutte le mie fantasie

Ma adesso dimmi
C
Com'è andata
G
Com'è stato
   B7                         Em
Il viaggio di una vita lì con te?

Io spero solo
C
Tutto bene
G
Tutto come
   B7                    Em
Progettavate voi da piccole
                 C
Stai bene lì con te?
Stai bene lì con te?
Stai bene lì...

Am    Em       G          D
Eri bellissima lasciatelo dire
Am     Em           G        D
Eri di tutti ma non lo sapevano
  Am      Em              G           D
E tu lo sapevi che facevi gola e soggezione
Am            Em      G                   D          B7
Siamo stati insieme e comunque non mi hai conosciuto mai

Ma adesso dimmi
C
Com'è andata
G
Com'è stato
   B7                         Em
Il viaggio di una vita lì con te?

Io spero solo
C
Tutto bene
G
Tutto come
   B7                    Em
Progettavate voi da piccole
                 C
Stai bene lì con te?
Stai bene lì con te?
                 Am  Em G D
Stai bene lì con    te

Am Em G D x3


http://chitarradaspiaggia.com/forum/viewtopic.php?t=825


SoundOfDreams
 
Messaggi: 12638
Località: Villa Literno (Caserta)

Messaggiodi SoundOfDreams

senza parole-Vasco rossi
La7
Ho guardato dentro una bugia
Do#-
e ho capito che e' una malattia
Fa#- Re
che alla fine non si puo' guarire mai
La
e ho cercato di convincermi
Mi La Mi
che tu non ce l'hai

Ho guardato dentro casa tua
e ho capito che era una follia
avere pensato che fossi soltanto mia
e ho cercato di dimenticare
di non guardare

La
E ho guardato la televisione
Do#-
e mi e' venuta come l'impressione
Fa#-
che mi stessero rubando il tempo e che tu
Re
che tu mi rubi l'amore
Re-
ma poi ho camminato tanto e fuori
La
c'era un gran rumore
Mi
che non ho più pensato a tutte queste cose

Strumentale Do Sol Fa Do Sol Fa Sol

Do
E ho guardato dentro un'emozione
Sol
e ci ho visto dentro tanto amore
Fa Do Sol
che ho capito perche' non si comanda al cuore

Fa
E va bene cosi'
Sol Do Sol Do Mi- La-7 Fa
senza parole senza parole
Do Sol Do Fa
E va bene cosi'senza parole
Do Sol
e va bene cosi'

E guardando la televisione
mi e' venuta come l'impressione
che mi stessero rubando il tempo e che tu
che tu mi rubi l'amore
ma poi ho camminato tanto e fuori
c'era un grande sole
che non ho piu' pensato a tutte queste cose (stessi accordi della 3+ALA-
strofa)

Strumentale La Do#- Fa#- Re

La Mi La Re
E va bene cosi' senza parole
La Do#- Fa#- Re
E va bene cosi' senza parole (sfumando)

http://chitarradaspiaggia.com/forum/viewtopic.php?t=254


SoundOfDreams
 
Messaggi: 12638
Località: Villa Literno (Caserta)

Messaggiodi SoundOfDreams

Otherside-RHCP
Intro
e---------------------------------------------------------
B---------------------------------------------------------
G--------------2---2---4-2-0------------------------------
D--2---2---2-------------------2------0---0---0-----------
A---------------------------------------------------------
E---------------------------------------------------------

Chorus 1
e---------------------------------------------------------
B---------------------------------------------------------
G--------------2---2---4-2-0------------------------------
D--2---2---2-------------------2---2--2-2---0---0---0-----
A---------------------------------------------------------
E---------------------------------------------------------



e---------------------------------------------------------
B---------------------------------------------------------
G--------------2---2---2--\9---9---9----------------------
D--2---2---2---------------------------9---9---9----------
A---------------------------------------------------------
E---------------------------------------------------------

Verse Fill
e--------12-------------------15--------|--3-----5--------
B--------------------------12-----------|--3-----5--------
G---------------------------------------|--4-----6--------
D---------------------------------------|--5-----7--------
A--0--0-----0-0-------------------------|--5-----7--------
E------------------/12--12--------12\---|--3-----5--------


Poi si ripete... inoltre c'è un assolo faaaaaaaaaaacilissiiiimo che tutti e dico tuttiiiii potete fare...


Solo
e--12\---0----0--0---0--0----0----0--0---0--0--0---0--0---
B--12\--10---10-10--10-10-/-17---17-17--17-17-17--20-17---
G---------------------------------------------------------
D---------------------------------------------------------
A---------------------------------------------------------
E---------------------------------------------------------


e---0---0--0--0---0--0--0---0--0--0---0--0--0-------------
B--17--17-17-17--20-17-17--20-17-17--20-17-17-------------
G---------------------------------------------------------
D---------------------------------------------------------
A---------------------------------------------------------
E---------------------------------------------------------


e---0---0--0---0--0---0---0--0---0--0---0--0--0-----------
B--17--17-17--17-17--17--17-17--17-17--20-17-17-----------
G---------------------------------------------------------
D---------------------------------------------------------
A---------------------------------------------------------
E---------------------------------------------------------
Buon divertimento.
http://chitarradaspiaggia.com/forum/viewtopic.php?t=934


SoundOfDreams
 
Messaggi: 12638
Località: Villa Literno (Caserta)

Prossimo


Torna a Raccolta Canzonieri - Testo Accordi tab chords Song Book Pdf


Chi c’è in linea

Visitano il forum: Nessuno e 1 ospite