Accordi tab ritmo intro arpeggio Magnolia - Negrita

Hai trovato gli accordi chords di una canzone ad orecchio e vorresti suggerirla? Oppure vuoi proporre la TAB per chitarra del tuo Riff preferito? il testo? Questo è il forum giusto! Anche per suggerimenti sul ritmo di una canzone. Ricordati di usare la funzione cerca...

Accordi tab ritmo intro arpeggio Magnolia - Negrita

Messaggiodi razielmaggots



Ragazzi...qualcuno ha gli accordi e l'arpeggio iniziale di magnolia dei negrita?? PLEASE 8)


razielmaggots
 
Messaggi: 854


Messaggiodi rufus89

Codice: Seleziona tutto
Intro

|       |       |       |        |       |       |       |
|--------------------------------|--------------------------------|
|--2-----------------------------|--------------------------------|
|------3-------------------------|----------1-----1---------------|
|--4---------6-----3-------------|--4-------------------4---------|
|------------4-----4-------------|----------2-----2-----2---------|
|--------------------------------|--------------------------------|

|       |       |       |        |       |       |       |
|--------------------------------|--------------------------------|
|--2-----------------------------|--------------------------------|
|------3-------------------------|--------------------------------|
|--4---------6-----3-------------|--4-------1---------------------|
|------------4-----4-------------|----------2---------------------|
|--------------------------------|--------------------------------|


Fa#
Lentamente scivola,


Si
la tua mano su di te
Fa#
quel tanto che basta per trasformare
Si
ogni carezza in un gemito
Fa#
ti guardo accaldata contorcerti
Si
tra le lenzuola umide,
Fa#
golosa ed implacabile,
Si Do#
forza fammi male finche' vuoi.
Si
lo sai

Fa# Do#
pioggia io saro',
Si
per toglierti la sete
Fa# Do#
e sole saliro',
Si
per asciugarti bene
Fa# Do#
vento arrivero',
Si
per poterti accarezzare
Fa#
ma se vuoi,
Do#
se tu vuoi
Si
tra fango e neve, fango e neve impazziro'
(ripetere lo stesso giro precedente)
Ti ammiro per come ti approcci a questi anni mutevoli,
mi piace quel tuo senso pratico, la tua forza e l'ironia
i cieli neri intorno a noi, sono soltanto nuvole
che dolcemente soffi via, e niente puo' far male piu',
lo sai

pioggia io saro', per toglierti la sete
e sole saliro', per asciugarti bene
vento arrivero', per poterti accarezzare
ma se vuoi, se tu vuoi
tra fango e neve, fango e neve impazziro'


rufus89
 
Messaggi: 1002
Località: Latina

Messaggiodi Zio Teo

Grazie mille!
chiedi pure se cerchi qualcosa che un po' di roba ce l'ho anch'io!

Teo


Zio Teo
 
Messaggi: 3

Messaggiodi Tozzy

Ciao volevo sapere se è possibile abbassare o alzare le 3 note della canzone per renderla "un po" più semplice?! Il FA# e il SI anche anche riesco a farli ma il DO# al momento mi è impossibile da fare!!

Grazie mille!


Powered
--by
----Tozzy
Tozzy
 
Messaggi: 3
Località: abitUdine

Messaggiodi andrechallant

se le vuoi alzare, puoi farlo di mezzo tono:

fa# ----> sol
si ------> do
do# ---> re

pero' comunque se riesci a fare il SI, puoi riuscire tranquilamente anche a fare il do# (446664). E' identico al SI, solo che invece di fare il barre' al secondo tasto, lo devi fare al quarto.. l'unico problema potrebbe essere il passaggio, ma se lo provi un paio di giorni fidati che viene :wink:

ps. noto adesso che e' il primo messaggio, quindi benvenuto!! se ti va passa nella sezione ''presentiamoci'' a salutarci :shock:


''Parlare di musica è come ballare di architettura.'' [F.Zappa]

Liuteria costruire da soli la chitarra, tutte le discussioni rilevanti
andrechallant
 
Messaggi: 2004
Località: Torino

Messaggiodi Il Giustiziere delle note

l'intro è facile facile!
Codice: Seleziona tutto
MAGNOLIA (Negrita)
edit by QUIQUO (Marco)  /  http://quiquo.altervista.org
(su Quiquo tutte le diteggiature degli accordi, la lavagna di Archimede per cambiare la tonalità, separare il testo dagli accordi e scegliere il layout di stampa)

INTRO(x2):
e--------------------------------------
B--------------------------------------
G--------------------------------------
D--11--8-------------------------------
A--9---9---11---8-------9--11--m---9---
E-----------9---9-------9--7---m---7---
   m   I    m   I       A  m       A
   M   M    M   M       M  I       I
e------------------------------------
B------------------------------------
G------------------------------------
D--11--8-----------------------------
A--9---9----11---8----9---6----------
E-----------9----9----9---7----------
   m   I    m    I    A   I
   M   M    M    M    M   M

[FA#] [SOL#m] [FA#] [SOL#m]

[FA#] Lentamente scivola
[SOL#m] la tua mano su di te
quel [FA#] tanto che basta per trasformare
[SOL#m] ogni carezza in un gemito
Ti [FA#] guardo accaldata contorcerti
[SOL#m] tra le lenzuola umide
go[FA#]losa ed implacabile
[SOL#m] Forza fammi male finchè [SI7+] vuoi... ([SI7+sus2]-[SI7+]...)
Lo [SOL#m] sa_________i

[FA#] Pioggia io sa[DO#]ro'
per [SOL#m] toglierti la sete
E [FA#] sole sali[DO#]ro'
per [SOL#m] asciugarti bene
[FA#] Vento arrive[DO#]ro'
per po[SOL#m]terti accarezzare
Ma se [FA#] vuoi se tu [DO#] vuoi
Tra [SOL#m] fango e neve fango e neve
impazzi[FA#]ro'
(ripeti INTRO)

Ti am[FA#]miro per come ti approcci
[SOL#m] A questi anni mutevoli
Mi piace quel tuo senso pratico
La tua forza e l'ironia
I cieli neri intorno a noi
Sono soltanto nuvole
Che dolcemente soffi via
E niente puo' far male piu' lo [SI7+] sai ([SI7+sus2]-[SI7+]...)
lo [SOL#m] sa_________i

[FA#] Pioggia io sa[DO#]ro'
per [SOL#m] toglierti la sete
E [FA#] sole sali[DO#]ro'
per [SOL#m] asciugarti bene
Vento arrivero'
per poterti accarezzare
Ma se vuoi se tu vuoi
Tra fango e neve fango e neve
impazziro', impazziro'

(assolo)
[FA#][SOL#m]....
e-----------------------------------------------------------------
B-----------------------------------------------------------------
G------------------------------------------------4/6---6-4-3-3/4--
D---4--6v----4------4------------------------4---6/8---8-6-4-4/6--
A---------------4h6-6--4-----------------4-6----------------------
E------------------------4h6---m-m-m-4h6--------------------------

e-----------4---2-------------4--3/4-----6-7-6----6-4-2-2/4------
B-----------4----------------------------------------------------
G---4-4-3/4-----3---m-m-m-4/6----3/4-----6-8-6----6-4-3-3/4------
D-6--------------------------------------------------------------
A----------------------------------------------------------------
E----------------------------------------------------------------

[FA#] Pioggia io sa[DO#]ro'
per [SOL#m] toglierti la sete
E [FA#] sole sali[DO#]ro'
per [SOL#m] asciugarti bene
Vento arrivero'
per poterti accarezzare
Ma se vuoi se tu vuoi
Tra fango e neve fango e neve
impazziro', impazziro'...
E pioggia io saro'
Yeah yeah yeah...
Per toglierti la sete
per asciugarti bene
per poterti accarezzare
Ma se vuoi se tu vuoi

*************
[SI7+sus2]=x24322
Ultima modifica di Il Giustiziere delle note su , modificato 2 volte in totale.


Il Giustiziere delle note
 
Messaggi: 605

Messaggiodi Hurt

Per l'intro si potrebbe fare anche una cosa del genere

INTRO:
E-----------------------------------------------
B-----------------------------------------------
G-----------------------------------------------
D-----11-8---------------------11-8-------------
A------------11-8-9-11-11-9---------11-8--9-6---
E-----------------------------------------------


Che ne pensate?

:shock:


"Rotolavo attraverso i giorni come una testa tagliata che sta finendo una frase"
(Amy Hempel - The Harvest)
Hurt
 
Messaggi: 118
Località: Milano

Messaggiodi Tozzy

andrechallant ha scritto:se le vuoi alzare, puoi farlo di mezzo tono:

fa# ----> sol
si ------> do
do# ---> re

pero' comunque se riesci a fare il SI, puoi riuscire tranquilamente anche a fare il do# (446664). E' identico al SI, solo che invece di fare il barre' al secondo tasto, lo devi fare al quarto.. l'unico problema potrebbe essere il passaggio, ma se lo provi un paio di giorni fidati che viene :wink:

ps. noto adesso che e' il primo messaggio, quindi benvenuto!! se ti va passa nella sezione ''presentiamoci'' a salutarci :shock:


Ma sai ke mi sono accorto anchio che era solo il primo messaggio??!! Mi ero registrato da quasi un anno ed ero convinto di aver già scritto qualcosa! :x

Comunque io sono veramente alle prime armi! Riesco a suonare (male) solamente la canzone del sole e il giro di smoke on the water!!! Il fatto è ke sto facendo da autodidatta ma preferirei avere qualcuno che mi dica dove sbaglio o come fare le cose! Però pazienza!

Grazie della dritta, per il momento i barrè sono una cosa proibitiva, e dover fare un barrè da 4 tasti non ne parliamo neanche!

Piccolo P.S. siccome sono niubbo non è potete darmi anke una dritta sul ritmo da usare? grazie mille!!


Powered
--by
----Tozzy
Tozzy
 
Messaggi: 3
Località: abitUdine

Messaggiodi xabaras88

INTRO:
E-----------------------------------------------
B-----------------------------------------------
G-----------------------------------------------
D-----11-8---------------------11-8-------------
A------------11-8-9-11-11-9---------11-8--9-6---
E-----------------------------------------------

mi suona molto bene, poi come continua?


xabaras88
 
Messaggi: 14

Messaggiodi darkside

andrechallant ha scritto:se le vuoi alzare, puoi farlo di mezzo tono:

fa# ----> sol
si ------> do
do# ---> re

pero' comunque se riesci a fare il SI, puoi riuscire tranquilamente anche a fare il do# (446664). E' identico al SI, solo che invece di fare il barre' al secondo tasto, lo devi fare al quarto.. l'unico problema potrebbe essere il passaggio, ma se lo provi un paio di giorni fidati che viene :wink:

ps. noto adesso che e' il primo messaggio, quindi benvenuto!! se ti va passa nella sezione ''presentiamoci'' a salutarci :shock:


Il sig Drigo (il chitarrista)
Suona sempre accordato in open E (Eb-Ab-Db-Gb-Bb-Eb)

Quindi...
Il DO# è in realtà un DO

^^


darkside
 
Messaggi: 128
Località: Rocktown

Messaggiodi Il Giustiziere delle note

Il sig Drigo (il chitarrista)
Suona sempre accordato in open E (Eb-Ab-Db-Gb-Bb-Eb)

proprio sicuro che quella sia un'accordatura aperta :?


Il Giustiziere delle note
 
Messaggi: 605

Accordi tab ritmo intro arpeggio Magnolia - Negrita

Messaggiodi Guit'EmAll

Hai ragione, l'accordatura è in Mi bemolle, ma non è aperta:

Eb Tuning: E♭-A♭-d♭-g♭-b♭-e♭'

E' un'accordatura un semitono più bassa dell'accordatura standard.

Visitate questo link, ci sono moltissime accordature per chitarra utilizzate in tutto il mondo:

Con "accordatura aperta" ("open tuning") s'intende un tipo di accordatura mediante la quale suonando le corde a vuoto si ottiene un accordo. Tramite barrè con un dito o mediante l'utilizzo di uno slide ("bottleneck") si ricavano facilmente molti altri accordi (è lo stesso principio degli "accordi traslabili" -----> http://chitarradaspiaggia.com/forum/vie ... php?t=2668 ).


:wink:


Guit'EmAll
 
Messaggi: 10366
Località: VI PIACEREBBE SAPERLO, EH??? :D

Messaggiodi Giuseppino84

MAAAAAAA.....
L'intro di magnolia, la suona il basso,non la guitarra :roll:
Solo così, per rompere un po' le scatole :x


"Se devo emigrare in America, come mio nonno...prendo il tram." (Guccini)
"La finezza d'ingegno non potrà mai sostituire la delicatezza delle dita" (Albert E., fisico)
Giuseppino84
 
Messaggi: 24
Località: Tra la via emilia e il west :-) (ogni tanto a Lancenigo)

Messaggiodi Guit'EmAll

Giuseppino84 ha scritto:MAAAAAAA.....
L'intro di magnolia, la suona il basso,non la guitarra :roll:
Solo così, per rompere un po' le scatole :x


Può essere facilmente riprodotta con la chitarra.


:wink:


Guit'EmAll
 
Messaggi: 10366
Località: VI PIACEREBBE SAPERLO, EH??? :D

Re: Magnolia - Negrita

Messaggiodi Myself79

sennò io avrei questa..

INTRO:
e--------------------------------------
B--------------------------------------
G--------------------------------------
D--11----------------------------------
A--9---13---11--13------9--11--11--9---
E-----------9-----------9--7-------7---

e------------------------------------
B------------------------------------
G------------------------------------
D--11--------------------------------
A--9---13---11--13----9--6-----------
E-----------9------------7-----------


Myself79
 
Messaggi: 77

Prossimo


Torna a Accordi TAB Riff testo chords - Studiare canzoni


Chi c’è in linea

Visitano il forum: Nessuno e 14 ospiti