Accordi tab intro Knockin on heaven's door Guns n' Roses

Hai trovato gli accordi chords di una canzone ad orecchio e vorresti suggerirla? Oppure vuoi proporre la TAB per chitarra del tuo Riff preferito? il testo? Questo è il forum giusto! Anche per suggerimenti sul ritmo di una canzone. Ricordati di usare la funzione cerca...

Accordi tab intro Knockin on heaven's door Guns n' Roses

Messaggiodi FiloRB

Never ha scritto:
FiloRB ha scritto:Mi insegnate anche il secondo assolo di knocking?
perfavore

ODDIO... c'è un secondo solo??? eheheheheheh

Canzoniere magnum. 330 testi e accordi

[Solo 2]
========
E|--------------------------------------------------------------------------|
B|--19b--------19----19~b~r-17-19-17--------20-17---20-------------------20-|
G|-----------------------------------19b---------------19b~r-17h19----------|
D|-----------------------------------------------------------------19b------|
A|--------------------------------------------------------------------------|
E|--------------------------------------------------------------------------|

E|-----------------------------------------------15---18b---17p15--17-15-20-|
B|-17---------------20--17-------------------------15-----------------------|
G|---------------------------------------------16---------------------------|
D|----19b~r-17-19----------19b--19b--17-----/17-----------------------------|
A|--------------------------------------------------------------------------|
E|--------------------------------------------------------------------------|

E|-19-20-21b---20-19-20-21b---20-19-20-22b--22b--22----------22-------------|
B|--------------------------------------------------20-22b------22b~r---2022|
G|--------------------------------------------------------------------------|
D|--------------------------------------------------------------------------|
A|--------------------------------------------------------------------------|
E|--------------------------------------------------------------------------|

E|--------------------------------------------------------------------------|
B|-22b~r---20-22-20---xx19b---19r-19-----19~b~r--17-19-17-17----20-17----17-|
G|--------------------------------------------------------------------------|
D|--------------------------------------------------------------------------|
A|--------------------------------------------------------------------------|
E|--------------------------------------------------------------------------|

E|------------------------------------------------------------|
B|17-1515-1212~~~~~-------------------------------------------|
G|------------------12---11-----11~b~r-9----(9)\7-----5~/4----|
D|---------------------------------------------------------5--|
A|------------------------------------------------------------|
E|------------------------------------------------------------|

[Ending]
========
E|----------------------------------------|
B|----------------------------13----------|
G|-5------x-9------x-12-------------------|
D|--------x--------x----------10----------|
A|-3------x-7------x-10-------------------|
E|----------------------------------------|


FiloRB
 
Messaggi: 25


Accordi tab intro Knockin on heaven's door Guns n' Roses

Messaggiodi Never

Grandissimo...


"... la vita è come una scatola di cioccolatini... non sai mai quello che ti capita..." Forrest Gump

Imparare accordo do maggiore

Imparare accordo re maggiore
Never
 
Messaggi: 943
Località: Milano

Accordi tab intro Knockin on heaven's door Guns n' Roses

Messaggiodi FiloRB

Si beh in realtà però non lo so fare
Tra qualche tempo me lo imparerò.
Nel frattempo il primo ormai lo spadroneggio... diciamo che a volte riesco a farlo... in qualche modo...


FiloRB
 
Messaggi: 25

Messaggiodi fede_r

dopo un bel po' ke nn passavo qui sul foro vi informo ke se volete posso fare un video anke per il 2° assolo se vi serve ;) basta kiedere


She says we gotta hold on to what we've got, it doesn't make a difference if we make it or not.
fede_r
 
Messaggi: 26

Accordi tab intro Knockin on heaven's door Guns n' Roses

Messaggiodi FiloRB

A me serve!


FiloRB
 
Messaggi: 25

Accordi tab intro Knockin on heaven's door Guns n' Roses

Messaggiodi fede_r

ok vado a preparare il video


She says we gotta hold on to what we've got, it doesn't make a difference if we make it or not.
fede_r
 
Messaggi: 26

Accordi tab intro Knockin on heaven's door Guns n' Roses

Messaggiodi CrAzYfAbIoL0

scusate il ritardo.. mi unisco a FiloRB.. serve anke a me


'Sei mai stato felice?' .. 'Si era un giovedì..'

Imparare a suonare i Power Chords con la chitarra
CrAzYfAbIoL0
 
Messaggi: 2046
Località: Sardegna / Emilia-Romagna

Accordi tab intro Knockin on heaven's door Guns n' Roses

Messaggiodi fede_r

allora, eccomi:

nn ho guardato il tab postato poco sopra, io lo so suonare secondo un tab di ultimate-guitar.com e mi pare identico a quello della canzone (il tab, nn la mia performance :)).
L'assolo lo potete trovare a questo indirizzo:

Non cliccate direttamente sul collegamento ma copiatelo nella barra dell'indirizzo o nn vi si apre nulla.
Siccome questo assolo è ben più complesso dell'altro l'ho anche fatto molto lento per chi nn ce la facesse subito...questo assolo "facilitato" (le note cmq sn le stesse) lo trovate qui

N.B.: come noterete, clamorosamente mi manca la 4^ corda della chitarra ke si è rotta mentre stavo provando...evidentemente le corde che uso fanno veramente schifo :/ ... in ogni caso nn cambia assolutamente nulla nella riuscita dell'assolo!

Ovviamente domande, consigli e critiche sono più che ben accetti ;)

Saluti rockeggianti.


She says we gotta hold on to what we've got, it doesn't make a difference if we make it or not.
fede_r
 
Messaggi: 26

Accordi tab intro Knockin on heaven's door Guns n' Roses

Messaggiodi FiloRB

Stragrazie! :!:
Ora scarico e questa sera o domani inizio a provare.
:P


FiloRB
 
Messaggi: 25

Accordi tab intro Knockin on heaven's door Guns n' Roses

Messaggiodi CrAzYfAbIoL0

ehy..io ho fatto il video del primo assolo..però quando vado a vederlo nel sito c'è il video ke va molto più veloce del suono :(

ehmm..questo si aggiuge alla mia esecuzione non proprio brillante..vabe..quando riuscirò a farlo meglio farò un altro video.. per ora questo è quello ke passa il convento.. per favore la frutta ke mi tirate matura..almeno la riciclo :lol:


'Sei mai stato felice?' .. 'Si era un giovedì..'

Imparare a suonare i Power Chords con la chitarra
CrAzYfAbIoL0
 
Messaggi: 2046
Località: Sardegna / Emilia-Romagna

Accordi tab intro Knockin on heaven's door Guns n' Roses

Messaggiodi fede_r

nn so se può aiutare, ma io faccio così: catturo i video in formato .avi e poi con tmpgenc li codifico in mpeg.


She says we gotta hold on to what we've got, it doesn't make a difference if we make it or not.
fede_r
 
Messaggi: 26

Accordi tab intro Knockin on heaven's door Guns n' Roses

Messaggiodi CrAzYfAbIoL0

La prosssima volta provo...

cmq il secondo assolo è molto più difficile..ma riuscirò a farlo...spero :oops:


'Sei mai stato felice?' .. 'Si era un giovedì..'

Imparare a suonare i Power Chords con la chitarra
CrAzYfAbIoL0
 
Messaggi: 2046
Località: Sardegna / Emilia-Romagna

Accordi tab intro Knockin on heaven's door Guns n' Roses

Messaggiodi FiloRB

Sto ancora provando...


FiloRB
 
Messaggi: 25

Messaggiodi FiloRB

Vi posto le due tablature fatte bene (Guitar Pro)


FiloRB
 
Messaggi: 25

Accordi tab intro Knockin on heaven's door Guns n' Roses

Messaggiodi Dufresne

mi spiace ma niente spartiti scannerizati...


Dufresne
 
Messaggi: 6160

PrecedenteProssimo


Torna a Accordi TAB Riff testo chords - Studiare canzoni


Chi c’è in linea

Visitano il forum: Nessuno e 8 ospiti