Accordi Tab Riff Solo Red hot chili peppers - Can't stop

Hai trovato gli accordi chords di una canzone ad orecchio e vorresti suggerirla? Oppure vuoi proporre la TAB per chitarra del tuo Riff preferito? il testo? Questo è il forum giusto! Anche per suggerimenti sul ritmo di una canzone. Ricordati di usare la funzione cerca...

Accordi Tab Riff Solo Red hot chili peppers - Can't stop

Messaggiodi Rocky Balboa



ciao qualcuno potrebbe aiutarmi cn questa canzone???? ho trovato molti tabulati ma c'è una parte in cui (secondo tutti i tabulati ke ho trovato) dovrei suonare la sesta corda cn il pollice!!!? nn ci riesco per niente !! per favore aiutatemi :(


Rocky Balboa
 
Messaggi: 66
Località: teano


Re: can't stop

Messaggiodi SoundOfDreams

mmmh strano... se posti la tab vediamo anche noi...
cmq..







Codice: Seleziona tutto
intro:
e|----------------------------|
B|----------------------------|
G|----------------------------|
D|----------------------------|
A|5--7--5--7--5--7--5--7--5--7|
E|----------------------------|

  play this 8 times total...but on the 5th time he alters it by going...

e|----------------------------|
B|----------------------------|
G|----------------------------|
D|----------------------------|
A|5--7--5--7--5--7p5-----5--7-|
E|--------------------7-------|

verse: 
e|----------------------------------------------------------------------|
B|----------------------------------------------------------------------|
G|------7--9-----------7--9--------------7--9-----------7--9------------|
D|----------------------------------------------------------------------|
A|7--7--------7--7--7--------7--7--7--5--------5--5--5--------5--5--5---|
E|---------------------------------------------------------------------8|

e|----------------------------------------------------------------|
B|----------------------------------------------------------------|
G|7--9-----------7--9--------------7--9-----------7--9------------|
D|----------------------------------------------------------------|
A|------------------------------5--------5--5--5--------5--5--5--7|
E|------8--8--8--------8--8--8------------------------------------|

chorus:
  Em   D    Bm   C
e|7----5----7----8-|
B|8----7----7----8-|
G|9----7----7----9-|
D|9----7----9----10|
A|7----5----9----10|
E|----------7----8-|

plays the same chords through the reggae part. after the reggae part the solo is

solo:
e|12--12--10--10--7--7-----12--14/10--12/7--10---------|
B|----------------------8-----------------------8/10--8|
G|-----------------------------------------------------|
D|-----------------------------------------------------|
A|-----------------------------------------------------|
E|-----------------------------------------------------|


SoundOfDreams
 
Messaggi: 12638
Località: Villa Literno (Caserta)

Messaggiodi Rocky Balboa

ho solo dei file guitar pro se hai il programma e puoi vederli te ne mando qualcuno


Rocky Balboa
 
Messaggi: 66
Località: teano

Messaggiodi Guit'EmAll

Pizzicare le corde 6, 5 e 4 della chitarra con il pollice destro, la 3 con il dito indice destro, la 2 con il dito medio destro e la 1 con il dito anulare destro è una tecnica tipica dei chitarristi classici.

Più note fatte sulla stessa corda vanno suonate alternando le dita (per esempio indice destro e medio destro).

:wink:


Guit'EmAll
 
Messaggi: 10366
Località: VI PIACEREBBE SAPERLO, EH??? :D

Messaggiodi Rocky Balboa

scusa ma nn ho capito molto bene puoi spiegarmelo più semplicemente per favore


nothin lasts forever even cold november rain
Rocky Balboa
 
Messaggi: 66
Località: teano

Re: can't stop

Messaggiodi Guit'EmAll

Rocky Balboa ha scritto:ciao qualcuno potrebbe aiutarmi cn questa canzone???? ho trovato molti tabulati ma c'è una parte in cui (secondo tutti i tabulati ke ho trovato) dovrei suonare la sesta corda cn il pollice!!!? nn ci riesco per niente !! per favore aiutatemi :(


I chitarristi classici, anzichè usare il plettro come noi, usano le dita della mano destra per "pizzicare" le corde. Se tu devi fare una nota che si trova sulla sesta corda della chitarra (=quella più spessa), in teoria dovresti "arpeggiarla" usando il dito pollice destro. Cioè: con un dito della mano sinistra schiacci la sesta corda in uno specifico tasto, e con il pollice destro pizzichi la corda. In pratica fai con le dita della mano destra ciò che facevi con il plettro.
In teoria, se devi pizzicare la sesta corda, oppure la quinta corda oppure la terza corda, dovresti pizzicarla usando il pollice destro.
Se invece la nota che fai si trova sulla terza corda dovresti pizzicare quest'ultima usando il dito indice destro. Se la nota si trova sulla seconda corda dovresti pizzicare la corda usando il dito medio destro. Se la nota si trova sulla prima corda (=la corda più sottile), dovresti pizzicare la corda usando il dito anulare destro.
In pratica: con il pollice dovresti pizzicare le tre corde più spesse, con l'indice destro la terza corda, con il medio destro la seconda corda e con l'anulare destro la prima corda.
Se due o più note si trovano su una stessa corda, per pizzicare quella corda dovresti alternare le dita della mano destra (per esempio indice destro e medio destro).
Questa sarebbe la regola, una regola che spesso gli stessi chitarristi classici infrangono a loro piacimento (vedi Eric Clapton quando suonava sulla chitarra classica e su quella elettroacustica.).




8)


Guit'EmAll
 
Messaggi: 10366
Località: VI PIACEREBBE SAPERLO, EH??? :D

Messaggiodi Guit'EmAll

In teoria, se devi pizzicare la sesta corda, oppure la quinta corda oppure la terza corda, dovresti pizzicarla usando il pollice destro.


Sesta, quinta e QUARTA corda con il pollice destro....

qui avevo scritto per sbaglio la terza corda....


8)


Guit'EmAll
 
Messaggi: 10366
Località: VI PIACEREBBE SAPERLO, EH??? :D

Messaggiodi Rocky Balboa

I chitarristi classici, anzichè usare il plettro come noi, usano le dita della mano destra per "pizzicare" le corde. Se tu devi fare una nota che si trova sulla sesta corda della chitarra (=quella più spessa), in teoria dovresti "arpeggiarla" usando il dito pollice destro. Cioè: con un dito della mano sinistra schiacci la sesta corda in uno specifico tasto, e con il pollice destro pizzichi la corda. In pratica fai con le dita della mano destra ciò che facevi con il plettro.
In teoria, se devi pizzicare la sesta corda, oppure la quinta corda oppure la terza corda, dovresti pizzicarla usando il pollice destro.
Se invece la nota che fai si trova sulla terza corda dovresti pizzicare quest'ultima usando il dito indice destro. Se la nota si trova sulla seconda corda dovresti pizzicare la corda usando il dito medio destro. Se la nota si trova sulla prima corda (=la corda più sottile), dovresti pizzicare la corda usando il dito anulare destro.
In pratica: con il pollice dovresti pizzicare le tre corde più spesse, con l'indice destro la terza corda, con il medio destro la seconda corda e con l'anulare destro la prima corda.
Se due o più note si trovano su una stessa corda, per pizzicare quella corda dovresti alternare le dita della mano destra (per esempio indice destro e medio destro).
Questa sarebbe la regola, una regola che spesso gli stessi chitarristi classici infrangono a loro piacimento (vedi Eric Clapton quando suonava sulla chitarra classica e su quella elettroacustica.).


ti ringrazio x il kiarimento guit anke se xò credo ke questo nn sia il mio caso xkè la tab mi indica di usare il pollice della mano sinistra per la sesta corda del manico


nothin lasts forever even cold november rain
Rocky Balboa
 
Messaggi: 66
Località: teano

Messaggiodi Guit'EmAll

Per quanto ne sappia io io pollice SINISTRO può essere utilizzato in certi tipi di accordi:

per esempio "Fm7 " = " 1X111X ", lo puoi fare facendo barrè con il dito indice sinistro su prima, seconda, terza e quarta corda e sfiorando con la punta del dito indice sinistro la quinta corda. Con il pollice destro diteggi la sesta corda al primo tasto e sfiori con la punta del pollice sinistro la quinta corda. (quando suoni questo accordo, la quinta corda sarà "smorzata", e la prima corda non va toccata).

8)


Guit'EmAll
 
Messaggi: 10366
Località: VI PIACEREBBE SAPERLO, EH??? :D

Messaggiodi Dufresne

bellissima


Dufresne
 
Messaggi: 6150

Messaggiodi Guit'EmAll

Dufresne ha scritto:la noia fa brutti scherzi... VIDEO OUT

però mi fanno ridè... :lol:



BAMBINI, LA CAFFEINA FA MALE, NON LA REGGETE..... SE NON MI DATE

ASCOLTO ECCO COME DIVENTATE..... :lol: :lol: :lol:


P.S.: QUALCOSA MI DICE CHE 'STE DUE TIPE MANCO REGGEVANO L'ACQUA CON LE BOLLICINE.....

:)


Guit'EmAll
 
Messaggi: 10366
Località: VI PIACEREBBE SAPERLO, EH??? :D

Messaggiodi Dufresne

Can't stop con l'acustica ... ehehehe

tiè .... VIDEO OUT

PS: una delle pochissime volte che ho usato il plettro... ahhh, suonata in fondo, vcino al ponte viene un pò più aggressiva e squillante :)


Dufresne
 
Messaggi: 6150

Can't stop - RHCP

Messaggiodi zion982

Bellissima canzone...mi piacerebbe suonarla sopratutto l'assolo...ke io ho provato a fare cn la prima e la terza corda...qualcuno sa farla?io vorrei suonarla un pò


...quelli tra palco e realtà...
zion982
 
Messaggi: 50

Messaggiodi lorenzo

io la suonare nn è difficile cmq lo imparata su guitar pro se ce lai vai a vedere con un po di pazienza ci riesce


this is the end, my only friend, the end
lorenzo
 
Messaggi: 217
Località: carrara

Messaggiodi grisu_mi

da Ultimate Guitar

Codice: Seleziona tutto
Cant Stop Tab by Red Hot Chili Peppers, www.Ultimate-Guitar.Com


Artist: Red Hot Chili Peppers
Title: Can't Stop
Album: By The Way
Transcribed by: Nick Ohlson
Email: Nick_Ohlson@hotmail.com

Comments and suggestions please email me


INTRO
e|------------------------------|--------------------------------|
B|------------------------------|--------------------------------|
G|------------------------------|--------------------------------|
D|------------------------------|--------------------------------|
A|-5-7---5-7---5-7---5-7---5-7--|-5-7---5-7---5-7---5----5-7-----|
E|------------------------------|---------------------7----------|
                              x4                             x1                 

-|------------------------------|
-|------------------------------|
-|------------------------------|
-|------------------------------|
-|-5-7---5-7---5-7---5-7---5-7--|
-|------------------------------|
                              x3     

VERSE 1 & 2
Riff A
-|----------------------------------------------------------------------------
-|----------------------------------------------------------------------------
-|------7--9---------7--9------------7--9---------7--9------------------------
-|----------------------------------------------------------------------------
-|-7-7--------7-7-7--------7-7-7--5--------5-5-5-------5-5-5------------------
-|----------------------------------------------------------------------------
                                                                             

-|---------------------------------------------------------------------------
-|---------------------------------------------------------------------------
-|----7--9---------7--9------------7--9--------7--9--------------------------
-|---------------------------------------------------------------------------
-|---------------------------------------------------------------------------
-|-7--------7-7-7--------7-7-7--8-------8-8-8--------8-8-8-------------------
                                                      x4                       

Riff B
-|----------------------------------------------------------------------------
-|----------------------------------------------------------------------------
-|------7--9---------7--9------------7--9---------7--9------------------------
-|----------------------------------------------------------------------------
-|-7-7--------7-7-7--------7-7-7--5--------5-5-5-------5-5-5------------------
-|----------------------------------------------------------------------------
                                                                             

-|--------------------------------7--7--7--7---
-|--------------------------------8--8--8--8---
-|----7--9---------7--9-----------9--9--9--9---
-|---------------------------------------------
-|---------------------------------------------
-|-7--------7-7-7--------7-7-7-----------------
                                           x1

CHORUS
-|-7--7---7--7--7----2--2---5--5--5----3--3---7--7--7----2--2---5--5--5-------
-|-8--8---7--7--7----3--3---5--5--5----3--3---7--7--7----3--3---5--5--5-------
-|-9--9---7--7--7----4--4---5--5--5----4--4---7--7--7----4--4---5--5--5-------
-|-9--9---7--7--7----4--4---5--5--5----5--5---7--7--7----4--4---5--5--5-------
-|-7--7---5--5--5----2--2---3--3--3----5--5---5--5--5----2--2---3--3--3-------
-|-------------------------------------3--3-----------------------------------

                                                                             
-|-7--7---7--7--7----2--2---5--5--5----3--3---7--7--7----2--3---
-|-8--8---7--7--7----3--3---5--5--5----3--3---7--7--7----3--5---
-|-9--9---7--7--7----4--4---5--5--5----4--4---7--7--7----4--5---
-|-9--9---7--7--7----4--4---5--5--5----5--5---7--7--7----4--5---
-|-7--7---5--5--5----2--2---3--3--3----5--5---5--5--5----2--3---
-|-------------------------------------3--3---------------------
           
VERSE

CHORUS                                                                   

VERSE 3
-|--7--7--7---5--5--5---2--2--2---3--3--3-------------------------------------
-|--8--8--8---7--7--7---3--3--3---5--5--5-------------------------------------
-|--9--9--9---7--7--7---4--4--4---5--5--5-------------------------------------
-|----------------------------------------------------------------------------
-|----------------------------------------------------------------------------
-|----------------------------------------------------------------------------
                                                                             

SOLO
-|----------------------------------------------------------------------------
-|-15b17-----15b17---15---15---12---12----------------------------------------
-|--------------------------------------12---12-------------------------------
-|----------------------------------------------------------------------------
-|----------------------------------------------------------------------------
-|----------------------------------------------------------------------------
   Little variations in the repeats, Just solo in Emin or Gmaj


Donne e chitarre. Se suoni la chitarra, cucchi le ragazze, dicono... Io andavo alle feste, suonavo la chitarra, 211 altri si ciulavano le ragazze. Una volta che son riuscito a cuccarmi una ragazza, mi hanno ciulato la chitarra (Paolo Rossi)
grisu_mi
 
Messaggi: 40
Località: Milano

Prossimo


Torna a Accordi TAB Riff testo chords - Studiare canzoni


Chi c’è in linea

Visitano il forum: Nessuno e 21 ospiti