gabry - Vasco Rossi

Hai trovato gli accordi chords di una canzone ad orecchio e vorresti suggerirla? Oppure vuoi proporre la TAB per chitarra del tuo Riff preferito? il testo? Questo è il forum giusto! Anche per suggerimenti sul ritmo di una canzone. Ricordati di usare la funzione cerca...

gabry - Vasco Rossi

Messaggiodi fegret



Mi sembrava strano non ci fosse questa stupenda song e invece a quanto pare nessuno aveva ancora proposto...
io il solo riesco a farlo ancora alla buona diciamo... :-DD e la parte dove c'è lo slide 10\8 e poi 10p8 non mi sembra proprio esatta, forse mi sbaglio...se qualcuno ha un pò più d'orecchio in modo da aggiustarla... FF::
Codice: Seleziona tutto
Here's part of Braido's solo

---------------------------|------------------------|-------------------
--5---3----5---3----5----3-|-3h5--3--3h5--3--3h5--3-|-3h5--3--2----3-5--
---------------------------|------------------------|-------------------
---------------------------|------------------------|-------------------
---------------------------|------------------------|-------------------
---------------------------|------------------------|-------------------

-----10\8------------------|------------------------|----------------------
-6---10\8-10p8-------------|--------------------5-6-|-6/8-6p5-6p5------5--5
--------------9-7-----7-9--|-------------------5----|------------7-5-7---5-
-----------------10-10---10|------------------------|-------------------7--
---------------------------|-8----------------------|----------------------
---------------------------|------------------------|----------------------

-----------8-5-------------|----------
----------8---8---------5-6|-6-8------
-7-----------------4-5-7---|----------
---------------5-7---------|----------
---------------------------|----------
---------------------------|----------


Here's the song with chords :

C9                G6/B                 Gm6/Bb           A7/4  A7
Adesso ascoltami  non voglio perderti  però non voglio neanche illuderti
Dm                      Fm          Fm
quest'avventura è stata una follia  è stata colpa mia
C                           G
tu hai sedici anni ed io... ed io
C9                   G6/B                 Gm6/Bb
Ma adesso spogliati  che voglio morderti  voglio sentire ancora il tuo
A7/4             A7
piacere esplodere con il mio
Dm                 Fm
domani sarà tardi  per rimpiangere la realtà
C                  G
è meglio viverla  è meglio viverla
C9               G6/B                  G6m/Bb                A7/4      A7
Adesso fermati   non voglio perderti   i tuoi sorrisi adesso non nasconderli
Dm                            Fm
con le mie mani tra le gambe  diventerai piu' grande
C                       G
e non ci sarò piu' dio  perch? ci sono io

Chorus : (Here starts the solo tabbed above )
F        Em                 F       Gsus4  G
Gabri  come sei splendida   Gabri   adesso smettila

C9                     G6/B
non t'ho insegnato io  quello che stai tacendo adesso da dio
Gm6/Bb                          A7/sus4  A7
mi fai tremare il cuore, mi fai smettere di parlare
Dm                    Fm
domani sarà tardi per rimpiangere la realtà
C                 G
è meglio viverla  è meglio viverla

Dm  Fm          C  G
Gabri           Gabri

Here are the chords fingerings :
C9    : x32030   The chards aren't strummed so you'll have to find an
G6/B  : x20030   acceptable arpeggio that fits the song.
Gm6/Bb: x10030
A7/4  : x02030
A7    : x02020
Dm    : xx0231
Fm    : xx3111
C     : x32010
G     : 320032
F     : 133211
Emin  : 022000
Gsus4 : 320013


fegret
 
Messaggi: 53


Re: gabry - Vasco Rossi

Messaggiodi cobramax

raga qualcuno riesce a trovare l'intro?


Sei tossico sempre di cose che non sono tue....
cobramax
 
Messaggi: 152
Località: Taranto

Re: gabry - Vasco Rossi

Messaggiodi Velor

In pratica questa canzone tratta di pedofilia? "£!


Il mio gruppo è quasi pronto....! Mi servono solo un chitarrista, un bassista, un batterista, un tastierista, e un cantante XD
Velor
 
Messaggi: 205

Re: gabry - Vasco Rossi

Messaggiodi Guit'EmAll

Velor ha scritto:In pratica questa canzone tratta di pedofilia? "£!


Ma lo sai che leggendo il testo, è venuto il dubbio anche a me....?? "£!

Non avevo mai visto il video originale e quando l'ho visto ho ritenuto che forse sarebbe stato meglio non postarlo.


&^^%


Guit'EmAll
 
Messaggi: 10366
Località: VI PIACEREBBE SAPERLO, EH??? :D

Re: gabry - Vasco Rossi

Messaggiodi Mauro80

Poi dicono che Vasco scrive cose senza senso... scusate l'OT


Mauro80
 
Messaggi: 7933
Località: TO

Re: gabry - Vasco Rossi

Messaggiodi valerio_vanni

Velor ha scritto:In pratica questa canzone tratta di pedofilia? "£!


Direi di no: la ragazza della canzone ha 16 anni, e il limite legale è 14.


valerio_vanni
 
Messaggi: 675

Re: gabry - Vasco Rossi

Messaggiodi mawui82

parla di una storia tra una 16enne e un 40enne....


mawui82
 
Messaggi: 3

Re: gabry - Vasco Rossi

Messaggiodi dinnin1979

Ragazzi... non confondiamo la Pedofilia con situazioni, discutibili, ma quasi di vita quitidiana... (vedesi molti personaggi famosi della TV con compagne appena 18enni vedi la nuova compagna di Andrea Roncato)
Legalmente il limite sono i 14 anni (con uno scarto massimo di 3 se entrambi sono consenzienti) è vero, ma la pedofilia, non si limita a quel limite, scendendo molto più in basso con le età ed è una perversione deplorevole per chiunque voglia definirsi esere umano.

Oltretutto nella canzone si dice solo " tu hai sedici anni ed io .. ed io..." non vedo da nessuna parte il riferimento ai 40 anni, anche se bene si intende un grande differenza di età, e non è neppure detto che debba essere proprio vasco il soggetto della canzone solo perchè il soggetto è la prima persona. ^^

Oltretutto il video postato non è il video della canzone, che me lo ricordo molto più spinto.
Quella è una raccolta di immagini con la canzone in sottofondo ^^


dinnin1979
 
Messaggi: 283

Re: gabry - Vasco Rossi

Messaggiodi megluna

Ciao a tutti, cercavo questa canzone e l'ho trovata qui, come sempre....
ma c'è qualcuno che ha anche la tabs dell'arpeggio, ho provato ad orecchio,
ma è solo un mesetto che "suono" (parolone!!!) la chitarra e non mi riesce uguale.
Grazie
Meg


... she's walking through the clouds, with the circus mind that's running wild,
butterflies and zebras and moonbeams and fairy tales,
That's all she ever thinks about, Riding with the wind...
(Jimi Hendrix)
Avatar utente
megluna
 
Messaggi: 1
Località: Catania

Re: gabry - Vasco Rossi

Messaggiodi giuseppe1992

NO VIDEO

che ve ne pare di questa cover????


giuseppe1992
 
Messaggi: 3

Re: gabry - Vasco Rossi

Messaggiodi Dufresne

giuseppe1992 ha scritto:video inesistente

che ve ne pare di questa cover????


sull'intonazione devi lavorare ancora un pò... diciamo che non stoni completamente ma canti in un'altra tonalità rispetto all'originale (che in alcuni punti è pure gradevole e particolare)

La chitarra, direi abbastanza bene 8_)


Dufresne
 
Messaggi: 6160

Re: gabry - Vasco Rossi @fegret

Messaggiodi erman_dml

------------------------------|----------------------------|-----------------------------|---------------------
--5---3---5---3---5----3---|-3h5--3--3h5--3--3h5--3--|-3h5--3--3h5--3--3h5--3--|3h5--3--2----3-5--
-----------------------------|-----------------------------|-----------------------------|---------------------
-----------------------------|-----------------------------|-----------------------------|---------------------
-----------------------------|-----------------------------|-----------------------------|---------------------
-----------------------------|-----------------------------|-----------------------------|---------------------



---10\8-------------------------|---------------|----------------------------5-|-----8--------------0--1-1\3
-6-10\8--10-8-------------------|----------5-6-|-6/8-6p5-6p5------5----5---|-7-8-10-8---0-1-3---------
----------------9-7-----7-9-----|----------5----|---------------7-5-7---7-----|-----------0-2---------------
--------------------10-10---10--|--------------|-------------------------------|-----------------------------
--------------------------------|---8------------|--------------------------------|---------------------------
----------------------------------|---------------|--------------------------------|---------------------------

sto imparando a leggere e scrivere tab.... questo dovrebbe essere il primo assolo di "Gabry"...
appena mi perfeziono, correggerò eventuali errori... se non lo fa prima qualche anima buona
ciao


erman_dml
 
Messaggi: 1



Torna a Accordi TAB Riff testo chords - Studiare canzoni


Chi c’è in linea

Visitano il forum: Nessuno e 20 ospiti