Pagina 1 di 1

HiLaRy DuFf - ThE bEaT oF mY hEaRt!!!!!!

MessaggioInviato:
di Francus
qualcuno ha tab o accordi di questa canzone??????????????????? :wink: :wink:

MessaggioInviato:
di SoundOfDreams
Hilarry capagrossa duff.... mio dio.. appiccatele fuoco...

seconda cosa: HiLaRy DuFf - ThE bEaT oF mY hEaRt!!!!!! Hai un problema con la tastiera?

MessaggioInviato:
di Guit'EmAll
SoundOfDreams ha scritto:Hilarry capagrossa duff.... mio dio.. appiccatele fuoco...

seconda cosa: HiLaRy DuFf - ThE bEaT oF mY hEaRt!!!!!! Hai un problema con la tastiera?



Dai, Lù, lo sai di essere GNOCCA, allora perchè questa gratuita invidia...? :lol: :lol: :lol:


Duf, mi sa che ho acceso la miccia di una bomba FORMATO CASA!! :lol: :lol: :lol:

MessaggioInviato:
di SoundOfDreams
Guit'EmAll ha scritto:
SoundOfDreams ha scritto:Hilarry capagrossa duff.... mio dio.. appiccatele fuoco...

seconda cosa: HiLaRy DuFf - ThE bEaT oF mY hEaRt!!!!!! Hai un problema con la tastiera?



Dai, Lù, lo sai di essere GNOCCA, allora perchè questa gratuita invidia...? :lol: :lol: :lol:


Duf, mi sa che ho acceso la miccia di una bomba FORMATO CASA!! :lol: :lol: :lol:
Non basta essere gnocche per fare musica... se lei avesse talento lo ammetterei.. ma non lo ha.E sicuramente non vado certo a invidiare le sue coscie scheletriche o la sua voce inesistente... sono solo invidiosa del suo conto in banca.

MessaggioInviato:
di Dufresne
dico solo questo... SIETE OFF :)

MessaggioInviato:
di Francus
di sicuro musica nn la sa fare e su questo nn ci piove!!!!!!!!!!!!!!! :roll:

xo è una vera e propria gnocca!!!!!!!!!!!!!avrà anke la testa grossa.......................ma averne di ragazze cm quella!!!!!!!!!!!!!!!!!!!!!!!!!!!!!!!!!!!!!!!!è una cosa.......... :wink: :wink: :wink: :o :o :o



e cmq il mio titolo del post è stato un vero e proprio tocco d'arte.....da rimanere :o :o :o !!!!!!!!!!!!!!!!!!!!!!

MessaggioInviato:
di stadius1960
Aggiungo gli accordi che a suo tempo non erano stati trovati

Codice: Seleziona tutto
V = slight accent
   V     V V        V     V V
A|9-9-9-9-9-9-9-9-|9-9-9-9-9-9-9-9-| ...


F#               C#m
I'm thinking about,
                 D#m
Letting it out,
             B
I wanna give in,
                 F#
I wanna go out,
                 C#m
But looking around,
                 D#m
I finally found,
              B
The rhythm of love,
                 F#
The feeling of sound,
                 C#m
It's making a change,
                 D#m
The feeling is strange,
                 B
Its coming right back,
                 F#
right back in my range,
                 C#m                       
Not worried about,
                 D#m
anything else,
            B
I'm waking up,

To the beat of my,
To the beat of my,
                  F#
To the beat of my heart,

( here play same as in the firts verse )

The beat of my heart,
The beat of my heart,
The beat of my heart,
It tears us apart,
The beat of my heart,
The beat of my heart,
The beat of my heart,
Now I'm back to the start,
B
To the beat of my,
To the beat of my,
To the beat of my heart,

F# (etc.)
I'm up from my down,
I turned it around,
But making it back,
I'm not gonna drown,
I'm taking a stance,
I won't miss a chance,
I want you to see,
I'm not scared to dance,
The way that you feel,
Could never be real,
I want you know,
I finished the deal,
So I'm sayin to you,
I'll always be true,
To the rhythm inside,

To the beat of my,
To the beat of my,
To the beat of my heart,
The beat of my heart,
The beat of my heart,
The beat of my heart,
It tears us apart,
The beat of my heart,
The beat of my heart,
The beat of my heart,
Now I'm back to the start,
B
To the beat of my,
To the beat of my,
                  D#m
To the beat of my heart,


BRIDGE (RIFF1)
D#m
Away Away,
     B     (etc.)
Away Away,
Away Away,
Away Away,
Away Away,
Away Away,
(To the beat of my)
(To the beat of my heart)
Away Away,
Away Away,
(To the beat of my)
(To the beat of my heart)

REPEAT THE SAME CHORUS FROM THE VERSE

To the beat of my,
To the beat of my heart,
The beat of my heart,
The beat of my heart,
The beat of my heart,
It tears us apart,
The beat of my heart,
The beat of my heart,
The beat of my heart,
Now I'm back to the start,

The beat of my heart,
The beat of my heart,
The beat of my heart,
It tears us apart,
The beat of my heart,
The beat of my heart,
The beat of my heart,
Now I'm back to the start,
To the beat of my,
To the beat of my,
To the beat of my heart,

OUTRO (RIFF1)
Away Away,
Away Away,
(To the beat of my)
(To the beat of my heart)
Away Away,
Away Away,
(To the beat of my)
(To the beat of my heart)


RIFF1 (BRIDGE)
e|----------------|--------|----------------|--------|--------|
A|----------------|        |----------------|        |        |
G|----------------|        |----------------|        | repeat |
D|----8-8-----6-8-| repeat |----9-9-8-8-----| repeat |  both  |
A|6-6-----9-9-----|        |------------9-8-|        |   3x   |
E|----------------|--------|7-7-------------|--------|--------|

RIFF1 (OUTRO)
e|----------------|--------|----------------|--------|--------|----------------|
A|----------------|        |----------------|        |        |----------------|
G|----------------|        |----------------|        | repeat |----------------|
D|----8-8-----6-8-| repeat |----9-9-8-8-----| repeat |  both  |----------------|
A|6-6-----9-9-----|        |------------9-8-|        |   1x   |6-6-------------|
E|----------------|--------|7-7-------------|--------|--------|----------------|



tratto da http://www.911tabs.com/link/?4476983

MessaggioInviato:
di *Drugo*
Non so.....sara' solo una mia opinione ma per me hilary ha una bella voce....e la sparo: ha anche del talento...... :idea:

PS.Nn credo che abbia coscie scheletriche.....per quel che ricordo nn e' proprio magra magra....almeno che nn abbia usato tesmed 24 su 24 negli ultimi mesi.... :)

MessaggioInviato:
di noice
ho trovato anche questo:
Codice: Seleziona tutto
VERSE:
(palm muted)
e|-------------------------------------------------------------------|
B|-------------------------------------------------------------------|
G|------------66666666----4444444444444444---------------------------|
D|-44444444---66666666----4444444444444444-----(X 4)-----------------|
A|-44444444---44444444----2222222222222222---------------------------|
E|-22222222----------------------------------------------------------|

BRIDGE INTO CHROUS:
(to the beat of my.. to the beat of my..)
e|-----------------------------------------------------|
B|-----------------------------------------------------|
G|--4----------4-----------4---------------------------|                 
D|--4----------4-----------4---------------------------|
A|--2----------2-----------2---------------------------|
E|-----------------------------------------------------|
Just strum with the time of the song.


CHORUS:
(hit the first chord on the word "HEART")
(chorus
e|-------------------------------------------------------------------|
B|-------------------------------------------------------------------|
G|------------66666666----4444444444444444---------------------------|
D|-44444444---66666666----4444444444444444-----(X 4)-----------------|
A|-44444444---44444444----2222222222222222---------------------------|
E|-22222222----------------------------------------------------------|


BRIDGE:
(away away, away away...)
e|--------------------------------------------------------------------|
B|--------------------------------------------------------------------|
G|-8888888888888888----44444444----4444-------------------------------|
D|-8888888888888888----4444444433334444-------------------------------|
A|-6666666666666666----2222222222222222-------------------------------|
D|--------------------------------------------------------------------|

da ultimate-guitar.com