Accordi Tab Riff Money - Pink Floyd

Hai trovato gli accordi chords di una canzone ad orecchio e vorresti suggerirla? Oppure vuoi proporre la TAB per chitarra del tuo Riff preferito? il testo? Questo è il forum giusto! Anche per suggerimenti sul ritmo di una canzone. Ricordati di usare la funzione cerca...

Accordi Tab Riff Money - Pink Floyd

Messaggiodi Torus




ciao, qualcuno mi sa dire il riff che si ripete x tutta la canzone Money degli intramontabili Pink?


Torus
 
Messaggi: 25


Messaggiodi ale84

Ciao, il riff è di basso però...




Non sono come voi, ma posso fingere...
ale84
 
Messaggi: 613
Località: roma

Messaggiodi Dufresne

ale84 ha scritto:Ciao, il riff è di basso...


esatto...


Dufresne
 
Messaggi: 6160

Messaggiodi SuperCiuk

Anche con la chitarra non viene male.....

Codice: Seleziona tutto

   
Guitar Tabs "Money" by Pink Floyd, Tabs
Guitar Tabs > P > Pink Floyd chords & tabs > Money Tabs
Please, support Pink Floyd .
Buy original: Pink Floyd CDs > Pink Floyd Posters > Pink Floyd Sheet Music

Guitar Tabs by: Pink Floyd
Tabs for song: Money

#----------------------------------PLEASE NOTE----------------------------------#
# This file is the author's own work and represents their interpretation of the #
# song. You may only use this file for private study, scholarship, or research. #
#-------------------------------------------------------------------------------#



PROPS GO TO: Wallet / Contino

Backing:

E|-----------------------------------------------------|
B|-----------------------------------------------------|
G|-----4-----------------------4-----------------------|
D|--------4-----------------------4--------------------|
A|--2--------2--------2--5--2--------2--------2--0--5--|
E|--------------2--5--------------------2--5-----------|
                                                Po  Ch



E|-----------------------------------------------------|
B|-----------------------------------------------------|
G|-----4-----------------------4-----------------------|
D|--------4-----------------------4--------------------|
A|--2--------2--------2--5--2--------2--------2--5-----|
E|--------------2--5--------------------2--5-----------|
                          Ch





E|----------------------------------------------------|
B|----------------------------------------------------|
G|----------------------------------------------------|
D|--4--4-----4-------------4--3--2--------------------|
A|--------4-------------4-------------------0--2--5---|
E|----------------2--5----------------0--3------------|
                                         Ch




SuperCiuk
 
Messaggi: 218

Messaggiodi Guit'EmAll

ale84 ha scritto:Ciao, il riff è di basso...


Comunque noi chitarristi, che suoniamo intavolature (che sono "codifiche" di pentagrammi in "Chiave Sol", detta anche "Chiave di Violino"), possiamo benissimo suonare pentagrammi scritti per basso (che sono pentagrammi scritti in "Chiave di Fa", detta anche "Chiave di Basso"). E' molto semplice (se a qualcuno interessa darò anche la spiegazione del perchè): se sul pentagramma scritto in "Chiave di Fa" per il basso c'è una nota sulla terza linea, a noi chitarristi basta immaginare quella nota sul nostro pentagramma in "Chiave di Sol" UN RIGO PIU' IN ALTO. In questo caso nel nostro pentagramma scritto in "Chiave di Violino" sarebbe la quarta linea del pentagramma (cioè la nostra nota "RE"). Se invece sul pentagramma scritto in "Chiave di Basso" c'è per esempio una nota nel secondo spazio, noi chitarristi dobbiamo immaginare quella nota sul nostro pentagramma in "Chiave di Sol" UNO SPAZIO PIU' IN ALTO. In questo caso sarebbe quindi nel terzo spazio del nostro pentagramma, cioè sarebbe la nostra nota "DO".

:wink:


Guit'EmAll
 
Messaggi: 10366
Località: VI PIACEREBBE SAPERLO, EH??? :D

Messaggiodi angioletto_chitarrista

grazie!!!siete mitici!!!!


angioletto_chitarrista
 
Messaggi: 59
Località: castelvetrano (TP)

Messaggiodi angioletto_chitarrista

oh scusate ma dire riff è cm dire tab????


angioletto_chitarrista
 
Messaggi: 59
Località: castelvetrano (TP)

Messaggiodi Salentu

oh scusate ma dire riff è cm dire tab????

no sono due cose distinte la tab è una maniera grafica di rappresentare una canzone dove i trattini (---------) rappresentano le corde (sono 6 naturalmente) e i numeretti sulle corde (--5--4--) rappresentano il tasto...per esempio l'accordo di do:
----x--------
----3--------
----2--------
----0--------
----1--------
----0--------

oppure per visualizzare l'arpeggio:
---------------------------------
----3------------------------3-
-------2-------------------2--
----------0-------------0-----
-------------1-------1--------
-----------------0-------------

etc etc...

il riff è invece un motivetto tipo "un assoletto" che è rindondante in una canzone e che se fatto bene ti rimane in testa per tuuuuuutta la vita 8)


Salentu
 
Messaggi: 381
Località: Roma

Messaggiodi wladdo75

Il concetto che esponi è giusto Salentu,
ma hai invertito l'impostazione grafica:

Questo è il manico della tua chitarra visto da me che ti siedo davanti:


----x--------
----3--------
----2--------
----0--------
----1--------
----0--------

Questa è la grafica corretta per rappresentare il DO.......

----0--------
----1--------
----0--------
----2--------
----3--------
----x--------

Come se avessi la chitarra sdraiata sulle gambe e tu la guardassi dall'alto, ma sempre con il manico a sinistra e la cassa a destra.... :)

Ciaooooooooooooooooo


Consiglio chitarra elettrica + Amplificatore

Ho suonato 2 anni al conservatorio... ma non mi hanno mai aperto!!
wladdo75
 
Messaggi: 5830
Località: TORINO

Messaggiodi Guit'EmAll

Tratto dal post: http://chitarradaspiaggia.com/forum/vie ... php?t=1029

" RIFF E RHYTHM RIFF. "

Il Riff è una breve frase strumentale di poche battute formata da una sequenza di singole note. Il Rhythm Riff è un Riff in cui, oltre alle singole note, compaiono accordi bicordi e/o tricordi detti "Power Chords", accordi formati dalla Tonica e dalla Quinta Giusta (più raramente possiamo trovare accordi formati da 4/5/6 corde). Il Riff è la parte ritmica caratteristica del Rock in generale, ma soprattutto dei suoi generi derivati Hard-Rock ed Heavy-Metal.








Mi riallaccio alla spiegazione di Wladdo:


wladdo75 ha scritto:
Accordo di Do:

----0-------- <-----prima corda della chitarra (quella più sottile ===> suono acuto, alto)
----1--------
----0--------
----2--------
----3--------
----x-------- <-----sesta corda della chitarra (quella più spessa ===> suono grave, basso)




E' esattamente come scriverlo: " X 3 2 0 1 0 ", leggendo da sinistra verso destra, dalla sesta corda alla prima corda.


Guit'EmAll
 
Messaggi: 10366
Località: VI PIACEREBBE SAPERLO, EH??? :D

Messaggiodi V1NceNZ0

io vorrei le tab di ANOTHER BRICK IN THE WALL penso si scriva così, ke mi aiutate


V1NceNZ0
 
Messaggi: 77
Località: Boscoreale(NA)

Messaggiodi SoundOfDreams

V1NceNZ0 ha scritto:io vorrei le tab di ANOTHER BRICK IN THE WALL penso si scriva così, ke mi aiutate
apri un topic apposito


SoundOfDreams
 
Messaggi: 12638
Località: Villa Literno (Caserta)

Re: riff-money-Pink Floyd

Messaggiodi slash92

ok ragazzi ma non ci dimentichiamo della canzone alla chitarra

Codice: Seleziona tutto
Intro to the solo:

e|-----------------|
b|-----------------|
g|-4-4-4-4-4-4-----| X4
d|-4-4-4-4-4-4-----|
a|-2-2-2-2-2-2-----|
E|-----------------|

e|--------------------------------10----------------12sb-------|
b|---------10sb----7-10--------12----12-12----12-12------12-12-|
g|-9b-7~----------------9b-7~----------------------------------|
d|-------------------------------------------------------------|
a|-------------------------------------------------------------|
E|-------------------------------------------------------------|

e|------------------7------------10-12-12b-------12-|
b|--------------------7-10-10/12-----------12-12----|
g|-9b-7-9p7------9b---------------------------------|
d|----------9~--------------------------------------|
a|--------------------------------------------------|
E|--------------------------------------------------|

e|-12b~---10-12-------------------------------------------|
b|--------------12-10-------------------------------------|
g|--------------------9-7------------------------7-7------|
d|------------------------9-7-----------7--9-7-------9b---|
a|----------------------------7-5---7-9--------9----------|
E|--------------------------------7-----------------------|

e|---7----------------10-12-12b--------|
b|-7---10-10/12-12-12-----------12-12--|
g|-------------------------------------|
d|-------------------------------------|
a|-------------------------------------|
E|-------------------------------------|

e|-14b--14-12---------------------------------------|
b|------------15-12----------10b-10-8-7-------------|
g|------------------14\9/11-------------9-7-6-------|
d|--------------------------------------------10-9~-|
a|--------------------------------------------------|
E|--------------------------------------------------|

e|-------------------------------|
b|-7----9-----10--1010101010-----|
g|-7----9-----11--1111111111-----|
d|---9~---9~-----------------9sb-|
a|-------------------------------|
E|-------------------------------|

e|-7-----7--------------12---7--------------------------------|
b|-------7----12-12-12b------7---------------------7-7-7------|
g|--------------------------------9sb---7-9--------7-7-7---9b-|
d|------------------------------------------9-9~---7-7-7h9----|
a|------------------------------------------------------------|
E|------------------------------------------------------------|

e|----------------------------------------------10-------10-12b-12b-12p10--|
b|-------7b-7b-------------------------------12-------10-------------------|
g|9b-----9b-9b---9bp7-9b-9b--p0-7brb---------------------------------------|
d|-----------------------------------9-------------------------------------|
a|-------------------------------------------------------------------------|
E|-------------------------------------------------------------------------|

e|-----------------------------------------------|
b|-10-10-10--------------------------------------|
g|----------9/11-9brb----------------------------|
d|--------------------9-----7--------------------|
a|----------------------------10-9-5-7-5-4-0-3-2-|
E|-----------------------------------------------|

e|-------------------------10-12-12b------10-12----|
b|-7b----9b----------10-12----------------------12-|
g|-7b----9b-----7/11-------------------------------|
d|----9~----9~-------------------------------------|
a|-------------------------------------------------|
E|-------------------------------------------------|

e|-19-22b-22-22-22----------------------------------------------|
b|-----------------22b~-------15-17b-15b-------17b---17-15b-----|
g|-------------------------16------------16~----------------16~-|
d|--------------------------------------------------------------|
a|--------------------------------------------------------------|
E|--------------------------------------------------------------|

e|------------------10-------------22b-22-22-22------|
b|---------------12----12-------19--------------22b~-|
g|-9-7-9-9/11----------------------------------------|
d|---------------------------------------------------|
a|---------------------------------------------------|
E|---------------------------------------------------|

e|-----------------------------------------22-----|
b|-22b-22b------------------19-19---22-22b----22b-|
g|------------21b-19~---21b-21--------------------|
d|------------------------------------------------|
a|------------------------------------------------|
E|------------------------------------------------|

e|----22b-22-22-22-------------------------------|
b|-19--------------22b-19-22p19------------------|
g|------------------------------19---------------|
d|---------------------------------21p19-19------|
a|------------------------------------------21~\-|
E|-----------------------------------------------|

e|---------------------|
b|---------------------|
g|---------------------|
d|-9-7-----------------|
a|-----10-6-7-5-4-3-2--|
E|---------------------|




ecco la tab con tanto di assolo che sarebbe di sassofono
&^^%


slash92
 
Messaggi: 891
Località: vicino Pompei (NA)

Re: riff-money-Pink Floyd

Messaggiodi Dufresne




Dufresne
 
Messaggi: 6160



Torna a Accordi TAB Riff testo chords - Studiare canzoni


Chi c’è in linea

Visitano il forum: Nessuno e 5 ospiti