Griffin schitarrata

Hai trovato gli accordi chords di una canzone ad orecchio e vorresti suggerirla? Oppure vuoi proporre la TAB per chitarra del tuo Riff preferito? il testo? Questo è il forum giusto! Anche per suggerimenti sul ritmo di una canzone. Ricordati di usare la funzione cerca...

Griffin schitarrata

Messaggiodi DevilOfSky

http://www.youtube.com/watch?v=CbEqIdUmiVg

Riuscite a trovare/capire gli accordi?

:idea:

grazie


DevilOfSky
 
Messaggi: 233


Messaggiodi Simrulez

ahaha io so solo che mi fa riudere peter che canta! si impegna!


"una invenzione che porteresti indietro nel tempo?"
"la chitarra elettrica e l'amplificatore"
Simrulez
 
Messaggi: 337

Messaggiodi lorenzo

i griffin sn fantastici


this is the end, my only friend, the end
lorenzo
 
Messaggi: 217
Località: carrara

Messaggiodi fede_r

è abbastanza semplice (anzi, molto semplice)...l'ho tirata giù in poco tempo, dovrebbe essere corretta:

e----------------4--3--4--3-----5-------------------------
b-----1--3--4-------------------5------------------------
g--------------------------------6---------------------
d--------------------------------7--------------------
a--------------------------------7--------------------
e--------------------------------5---------------------
nella prima parte (è un sol, potete farlo anche "normale")

e-----------------------------------------------------
b------8--7--8--7---------6-----6--8----------------
g--------------------8--8-----8----------------------
d----------------------------------------------------
a----------------------------------------------------
e-----------------------------------------------------
la seconda parte prevederebbe due chitarre, questo è l'arpeggino

se volete faccio il video...ciao belli!


She says we gotta hold on to what we've got, it doesn't make a difference if we make it or not.
Avatar utente
fede_r
 
Messaggi: 26



Torna a Accordi TAB Riff testo chords - Studiare canzoni


Chi c’è in linea

Visitano il forum: Nessuno e 8 ospiti