Accordi Tab Riff intro Chitarra Jingle bells rock

Hai trovato gli accordi chords di una canzone ad orecchio e vorresti suggerirla? Oppure vuoi proporre la TAB per chitarra del tuo Riff preferito? il testo? Questo è il forum giusto! Anche per suggerimenti sul ritmo di una canzone. Ricordati di usare la funzione cerca...

Accordi Tab Riff intro Chitarra Jingle bells rock

Messaggiodi pppppp



x favore m potete procurare la tab d sto pezzo? nn sn cacchio d trovarla!!!

x favore la tab con l'intro inclusa!!!
grazie anticipatamente!


............I stayed too long................

mettiamo un po d cose in chiaro... io sono più fan d eric clapton di te
io sono l'unico pppppp del forum e tanti saluti ai suonatori...B-)
m correggo: io SONO eric clapton
pppppp
 
Messaggi: 77


Accordi Tab Riff Chitarra Jingle bells rock

Messaggiodi Guit'EmAll




tab per il basso intanto:

Codice: Seleziona tutto
12 12 12 11 11 11 9 11 9   
                          9
                           
                           

9 11 9   7  9 11 9   
        9           9
                     
                     

     5 7 9  7     5 7  9 9 9 9 7 12
7 9          7 9                 
                                   
                                   

12 12 14 12  9 12  14 12  12 12 11 9 7   
                                        9
                                         
                                         

12 12 14 12  9 12  14 12  7 7 9 9 9 9 11 9 7
                                             
                                             
                                             

12 12 12 11 11 11 9 11 9   
                          9
                           
                           

9 11 9   7  9 
        9       
               
               

9 12 12 14 14 12 9 9 12 14
                           
                           
                           

11 11 11 9 7  11 11 11 9 7 11  11 11 9 7 12~~~~~~
                                                 
                                                 
                                                 


Guit'EmAll
 
Messaggi: 10366
Località: VI PIACEREBBE SAPERLO, EH??? :D

Accordi Tab Riff intro Chitarra Jingle bells rock

Messaggiodi pppppp

grazie guit!!!

cmq se ne trovate qlcn altra sempre ben venuta!!!


............I stayed too long................

mettiamo un po d cose in chiaro... io sono più fan d eric clapton di te
io sono l'unico pppppp del forum e tanti saluti ai suonatori...B-)
m correggo: io SONO eric clapton
pppppp
 
Messaggi: 77

cerco jingle bell rock

Messaggiodi White_angel1

cerco gli accordi di questa canzone per calde serate natalizie con amici e parenti....help...


POVERI POLASTRELLI.... MI FANNO UN MALE PAZZESCO!!!!!
White_angel1
 
Messaggi: 20

Messaggiodi Guit'EmAll

Codice: Seleziona tutto
=========================================================================
Jingle Bell Rock
Bobby Helms
key of D

intro       might include tab of this later

            D           DM7          D6          DM7     (DM7=Dmaj7)
verse1     Jingle bell, jingle bell, jingle bell rock
           D6           DM7       Em            A
           Jingle bells swing and jingle bells ring
           Em          A          Em         A
           Snowin' and blowin' up bushels of fun
           E                  A+5
           Now the jingle hop has begun
            D           DM7          D6          DM7
           Jingle bell, jingle bell, jingle bell rock
           D6           DM7       Em          A
           Jingle bells chime in jingle bell time
           Em          A             Em         A
           Dancin' and prancin' in Jingle Bell Square
           E       A      D   D7
           In the frosty air

                  G                     Gm
bridge1    What a bright time, it's the right time
              D
           To rock the night away
                  E
           Jingle bell time is a swell time
           A
              To go glidin' in a one-horse sleigh
           D        DM7            D6          DM7
           Giddy-up jingle horse, pick up your feet
           D6       DM7       B
           Jingle around the clock
           G                        Gm
           Mix and a-mingle in the jinglin' feet
           E             A           D
             That's the jingle bell rock


verse2     Jingle bell, jingle bell, jingle bell rock        (repeat verse1's
           Jingle bells chime in jingle bell time             last 4 lines)
           Dancin' and prancin' in Jingle Bell Square
           In the frosty air

bridge2    What a bright time, it's the right time
           To rock the night away
           Jingle bell time is a swell time
           To go glidin' in a one-horse sleigh
           Giddy-up jingle horse, pick up your feet
           Jingle around the clock
           G                        Gm
           Mix and a-mingle in the jinglin' feet
           E           A
           That's the jingle bell
           E           A
           That's the jingle bell
           E           A           D
           That's the jingle bell rock(may try to post guitar lick here too)


Guit'EmAll
 
Messaggi: 10366
Località: VI PIACEREBBE SAPERLO, EH??? :D

Accordi Tab Riff intro Chitarra Jingle bells rock

Messaggiodi BigMAX

aiuto sto cercando gli accordi di questa canzone!!! ho gia usato la funzione cerca ma solo jingle bell rock ho trovato....


BigMAX
 
Messaggi: 42

Accordi Tab Riff intro Chitarra Jingle bells rock

Messaggiodi Mauro80

Anche questa dal defunto Amostab

Codice: Seleziona tutto
[F]Jingle bells jingle bells oh che [Bb]bello an[F]dar
[Bb]bello andare [F]col cavallo [G7]sulla neve [C7]bianca.
[F]Jingle bells jingle bells oh che [Bb]bello an[F]dar
[Bb]scivolando [F]con la slitta [C7]nel silenzio and[F]iam.

        [F]Nella notte santa s'ode da lon[Bb]tano
        l'eco di cam[C7]pane din don din don [F]dan.
        Canteremo insieme al suon dei campa[Bb]nelli
        augurando a [C7]tutti un lieto e buon Na[F]tal.

[F]Jingle bells jingle bells oh che [Bb]bello a[F]ndar
[Bb]con le briglie [F]fra le mani [G7]tra gli abeti [C7]bianchi.
[F]Jingle bells jingle bells oh che [Bb]bello an[F]dar
[Bb]sa il cavallo [F]dove andare [C7]lungo il suo sent[F]ier.

        [F]La chiesa di laggiù annuncia che Ge[Bb]sù
        è nato già per [C7]noi, è festa in tutti i [F]cuor.
        Nell'aria din don dan ascoltiamo da lon[Bb]tan
        e sulla slitta an[C7]diam ripetendo din don [F]dan.


[F]Jingle bells jingle bells oh che [Bb]bello an[F]dar
[Bb]bello andare [F]col cavallo [G7]sulla neve b[C7]ianca.
[F]Jingle bells jingle bells oh che [Bb]bello an[F]dar
[Bb]scivolando [F]con la slitta [C7]nel silenzio an[F]diam.


Mauro80
 
Messaggi: 7933
Località: TO

Messaggiodi mauz bitto

io ci metto tab e testo inglese:
Codice: Seleziona tutto
e|---------------------------------------------------------------------------|
B|---------------------------------------------------------------------------|
G|------4-------------------------------------4------------------------------|
D|-------------7------5-----------------------------7--5---------------------|
A|--5------------------------5---5---5---5--------------------5--------------|
E|---------------------------------------------------------------------------|
  Dash-ing  through  the  snow  in  a  one  horse  op-en  sleigh

e|---------------------------------------------------------------------------|
B|---------------------------------------------------------------------------|
G|--------5------4---------7-----9---7----5----2----4------------------------|
D|--------------------7------------------------------------------------------|
A|--5------------------------------------------------------------------------|
E|---------------------------------------------------------------------------|
   O’er  the  fields  we  go  laugh-ing  all  the  way

e|---------------------------------------------------------------------------|
B|---------------------------------------------------------------------------|
G|--------4------------------------4-----------------------------------------|
D|---------------------------------------7---5-------------------------------|
A|---5---------7----5----5-----5-------------------9-------------------------|
E|---------------------------------------------------------------------------|
   Bells  on  bob-tail  ring  mak-ing  spir-its  bright

e|---------------------------------------------------------------------------|
B|---------------------------------------------------------------------------|
G|-------------5---4--------7----7-----7---7----9-----7-----5----7---5--/--9-|
D|---------------------7-----------------------------------------------------|
A|---7----7------------------------------------------------------------------|
E|---------------------------------------------------------------------------|
   What  fun  it  is  to  ride  and  sing  a  sleigh-ing  song  to-night  oh

e|---------------------------------------------------------------------------|
B|---------------------------------------------------------------------------|
G|---------------------------------------------------------------------------|
D|---9---9----9------9---9----9------9--12-------------9---------------------|
A|-------------------------------------------10---12-------------------------|
E|---------------------------------------------------------------------------|
   Jing-le  bells  jing-le  bells  jing-le  all  the  way 

e|---------------------------------------------------------------------------|
B|---------------------------------------------------------------------------|
G|--------------------------------------------------------------------7------|
D|10---10----10--10--10---9----9----9--9---9-----7----7--9-----7-------------|
A|---------------------------------------------------------------------------|
E|---------------------------------------------------------------------------|
  Oh  What  Fun  It  is  to  ride  on  a  one  horse  o-pen  sleigh  hey

e|---------------------------------------------------------------------------|
B|---------------------------------------------------------------------------|
G|---------------------------------------------------------------------------|
D|---9---9----9------9---9----9------9--12-------------9---------------------|
A|-------------------------------------------10---12-------------------------|
E|---------------------------------------------------------------------------|
   Jing-le  bells  jing-le  bells  jing-le  all  the  way 

e|---------------------------------------------------------------------------|
B|---------------------------------------------------------------------------|
G|--------------------------------------------------------------------7------|
D|10---10----10--10--10---9----9----9--9---9-----7----7--9-----7-------------|
A|---------------------------------------------------------------------------|
E|---------------------------------------------------------------------------|

E--0-0-0--0-0-0--0-3------0
B---------------------1-3--
G--------------------------
D--------------------------
A--------------------------
E--------------------------

E--1-1-1-1-1-0-0-0-0-----0--
B--------------------3-3---3
G---------------------------
D---------------------------
A---------------------------
E---------------------------

E--0-0-0--0-0-0--0-3------0
B---------------------1-3--
G--------------------------
D--------------------------
A--------------------------
E--------------------------

E--1-1-1-1-1-0-0-0-0--3-3-1----
B---------------------------3-1
G------------------------------
D------------------------------
A------------------------------
E------------------------------



testo:
Codice: Seleziona tutto
Dashing through the snow In a one-horse open sleigh
Through the fields we go Laughing all the way.
Bells on bob-tail ring Making spirits bright
What fun it is to ride and sing A sleighing song tonight.

chorus: Jingle bells, jingle bells Jingle all the way,
Oh what fun it is to ride In a one-horse open sleigh,
O Jingle bells, jingle bells Jingle all the way,
Oh what fun it is to ride In a one-horse open sleigh.

A day or two ago I thought I'd take a ride
And soon Miss Fanny Bright Was seated by my side;
The horse was lean and lank Misfortune seemed his lot,
We ran into a drifted bank And there we got upsot.

A day or two ago The story I must tell
I went out on the snow And on my back I fell;
A gent was riding by In a one-horse open sleigh
He laughed at me as I there sprawling laid But quickly drove away.

Now the ground is white, Go it while you're young,
Take the girls along And sing this sleighing song.
Just bet a bob-tailed bay, Two-forty as his speed,
Hitch him to an open sleigh and crack! You'll take the lead.


mauz bitto
 
Messaggi: 3531
Località: Bitonto (Ba)

Messaggiodi Giuspe

Io l'ho fatta la settimana scorsa col mio maestro,ve la posto:
RE RE SOL RE MI7 LA RE RE SOL RE LA RE
4/4 |/ / / /|/ / / /|/ / / /|/ / / /|/ / / /|/ / / /|/ / / /|/ / / /|
RE SOL LA RE RE RE7 SOL LA RE
|/ / / /|/ / / /|/ / / /|/ / / /|/ / / /|/ / / /|/ / / /|/ / / /| D.C


Giuspe
 
Messaggi: 4

Accordi Tab Riff intro Chitarra Jingle bells rock

Messaggiodi Clapton

Bellissima viene benone :SSS


Clapton
 
Messaggi: 1803
Località: Caltanissetta

Accordi Tab Riff intro Chitarra Jingle bells rock

Messaggiodi Clapton

Ho trovato un'interessantissima lezione:



però alla fine quando la suona completa, mentre suona gli accordi fa anche delle note singole, però non le riesco a capire, forse nella lezione completa le dice! :?


Clapton
 
Messaggi: 1803
Località: Caltanissetta

Re: Accordi Tab Riff intro Chitarra Jingle bells rock

Messaggiodi Dufresne



Dufresne
 
Messaggi: 6149



Torna a Accordi TAB Riff testo chords - Studiare canzoni


Chi c’è in linea

Visitano il forum: Nessuno e 15 ospiti