Pagina 3 di 3

MessaggioInviato:
di ..sduella
Mauro80 ha scritto:
Ora la posso finalmente smettere di uppare video scandalosi e farmi insultare su youtube!!! :!: :!: :!:


..no mauro!!ma che sei scemo??!! :lol: :lol: :lol: ..uppa uppa!!a me oggi m'hanno anche riaggiustato al chitarra e posso tornare a registrare con audacity :P :P :( :(

MessaggioInviato:
di noice
Sdu'..ehm..non è che correggi la sottospecie di tab che ho postato? 8)

MessaggioInviato:
di ..sduella
noice ha scritto:
non e che mi potresti dire gli accodi del secondo pezzo???

moolto ma moolto approssimati..li ho presi dal video..
Codice: Seleziona tutto
|-----------3333-22----0233----2--2-2-2/--5/--3-3-3-3----33333/--5/-32----0233--2--2-2-2/--5/--2-----|
|-----------3333-33----3333----3--3-3-4/--7/--5-5-5-5----33333/--5/-33----3333--3--3-3-4/--7/--4-----|
|-----------0000-02----2222----4--4-4-4/--7/--5-5-5-5----22222/--4/-22----2222--4--4-4-4/--7/--4-----|
|----h2-0---2222-00----0000----4--4-4-4/--7/--5-5-5-5----00000/--0/-00----0000--4--4-4-4/--7/--4-----|
|----h2-0---2222---------------2--2-2-2/--5/--3-3-3-3---------------------------2--2-2-4/--5/--2-----|
|------------------------------2--2-2-2/--5/--3-3-3-3---------------------------2--2-2-4/--5/--2-----|

aspettiamo Sdu' per la tab precisa 8)


..la tab è giusta così..solo che io faccio anche una pennata a vuoto prima di passare si SIm :wink:

MessaggioInviato:
di noice
infatti ero indeciso e li ho messo quella pennata in piu' sul RE4.. quindi se tolgo una pennata al RE4 e ne metto una a vuoto è giusta? :)

MessaggioInviato:
di ..sduella
noice ha scritto:infatti ero indeciso e li ho messo quella pennata in piu' sul RE4.. quindi se tolgo una pennata al RE4 e ne metto una a vuoto è giusta? :)


..lasciaci tutte quelle che hai scritto..però..un'altra cosa di cui me se accorta solo ora..:
a questo pezzo(così è come l'hai scritto te)

|-----------3333-22----0233-----
|-----------3333-33----3333----
|-----------0000-02----2222----
|----h2-0--2222-00----0000----
|----h2-0--2222---------------
|------------------------------------

in realtà è così :oops: :
|-----------33333-22----0232--0---
|-----------33333-33----3333--0-
|-----------00000-02----2222--0--
|----h2-0--22222-00----0000--0--
|----h2-0--22222---------------
|------------------------------------

MessaggioInviato:
di noice
..a tutte e due le parti? l'ho modificata..vedi un po' :)

MessaggioInviato:
di Little John
bella adesso riesco a farla :P :!:

COMUNQUE AVEVO FATTO UN COMPLIMENTO SUL TUO TATUAGGIO SDù
:)

MessaggioInviato:
di ..sduella
Little John ha scritto:bella adesso riesco a farla :P :!:

COMUNQUE AVEVO FATTO UN COMPLIMENTO SUL TUO TATUAGGIO SDù
:)


.. :oops: :oops: ..perdonami..non avevo letto il PS (._.) :oops: :oops: ..graZie comunque =) =) =) :-D

MessaggioInviato:
di darkside
Uh ma io la faccio

In Open G

e con la slide al mignolo ^^

Re: Ligabue - Radiofreccia

MessaggioInviato:
di piccolotomopaco
io l intro di ho perso le parole me la sn trovata a orecchio:

praticamente l accordo è sempre il re- e pizzichi/plettri la terza corda dal basso( la corda ke premi al 2 tasto) poi pizzichi la corda del mi cantino e subito dopo pizzichi la terza e la seconda corda e poi la 1 e la 2 (mmm... mi sa ke sn un po contorto postero in seguito un video x essere un po piu chiaro XD)

Re: Ligabue - Radiofreccia

MessaggioInviato:
di jirachi94

Re: Ligabue - Radiofreccia

MessaggioInviato:
di andrechallant
l'avevano scritto anche in prima pagina... questa e' ''radiofreccia'', l'altra e' ''ho perso le parole'', dal film radiofreccia ;)

Re: Ligabue - Radiofreccia

MessaggioInviato:
di diomadre

Re: Ligabue - Radiofreccia

MessaggioInviato:
di andrechallant
riprende la stessa melodia ma in versione elettrica... come anche ''Boris segna il territorio'', ma sul cd son tracce distinte, anche perche' si differenzian tutte in qualcosa.. quindi meglio lasciare i topic divisi ;)