Le Vibrazioni - Ogni Giorno ad ogni ora

Hai trovato gli accordi chords di una canzone ad orecchio e vorresti suggerirla? Oppure vuoi proporre la TAB per chitarra del tuo Riff preferito? il testo? Questo è il forum giusto! Anche per suggerimenti sul ritmo di una canzone. Ricordati di usare la funzione cerca...

Le Vibrazioni - Ogni Giorno ad ogni ora

Messaggiodi CapitanLollo

Hola banda!
Cerco diperatamente l'arpeggio dell'intro di Ogni giorno ad ogni ora delle Vibrazioni. Spero riuscirete a trovarlo!!
Saluti!
il capitano


Avatar utente
CapitanLollo
 
Messaggi: 3


Messaggiodi V1NceNZ0

ho trovato i seguenti accordi da arpeggiare, fammi saxe se sn buoni


FA#- LA DO#-


L'uomo è km un anima rakkiusa in un animale
V1NceNZ0
 
Messaggi: 77
Località: Boscoreale(NA)

Re: Le Vibrazioni - Ogni Giorno ad ogni ora

Messaggiodi vudash

ragazzi premetto che non sono un grande chitarrista , cerco di ricavare qualcosa di simile a orecchio , quindi provate e fatemi sapere se è tutto ok cosi la suono anche io ehehe bay spero di esservi stato utile , a dimenticavo cerco gli accordi arpeggiati di insolita , nella posizioni originali se qualcuno mi aiuta ne sono felice il post è gia aperto bay bay


E------------------
A------------------
D------------------
G------9-----------
B--------10--------
e-------------------


E------------------
A------------------
D------------------
G------11----------
B--------12---------
e------------------

E------------------
A------------------
D------------------
G------13---------
B--------14--------
e------------------

E------------------
A------------------
D------------------
G------11---------
B--------12--------
e------------------


E------------------
A------------------
D------------------
G------8---------
B--------9--------
e------------------
e-------------------

E------------------
A------------------
D------------------
G------9---------
B--------10--------
e------------------

E------------------
A------------------
D------------------
G------8---------
B--------9--------
e------------------

E------------------
A------------------
D------------------
G------9---------
B--------10--------
e------------------

E------------------
A------------------
D------------------
G------11---------
B--------12--------
e------------------


L'ultimo giro lo finisce restando su:

E------------------
A------------------
D------------------
G------9---------
B--------10--------
e------------------

E------------------
A------------------
D------------------
G------11---------
B--------12--------
e------------------


vudash
 
Messaggi: 1



Torna a Accordi TAB Riff testo chords - Studiare canzoni


Chi c’è in linea

Visitano il forum: Nessuno e 10 ospiti