wake me up when september ends - Green day

Hai trovato gli accordi chords di una canzone ad orecchio e vorresti suggerirla? Oppure vuoi proporre la TAB per chitarra del tuo Riff preferito? il testo? Questo è il forum giusto! Anche per suggerimenti sul ritmo di una canzone. Ricordati di usare la funzione cerca...

wake me up when september ends - Green day

Messaggiodi stargirl




ho cercato ovunque wake me up dei green day perchè è bellissima sopratutto l'arpeggino iniziale quindi se la pubblicate mi fa mooolto piacere altrimenti pacenza...okkai? ciaaao


"noi gente che spera cercando qualcosa di più in fondo alla sera“
stargirl
 
Messaggi: 777
Località: messina


Re: wake me up when september ends

Messaggiodi Never

stargirl ha scritto:ho cercato ovunque wake me up dei green day perchè è bellissima sopratutto l'arpeggino iniziale quindi se la pubblicate mi fa mooolto piacere altrimenti pacenza...okkai? ciaaao


ecco... qui mi associo, decisamente mi associo...!!!
questa la VOGLIO anch'io...

vediamo cosa trovo in giro...

veramente bella.. condivido...

Ciauz
Ultima modifica di Never su , modificato 1 volte in totale.


"... la vita è come una scatola di cioccolatini... non sai mai quello che ti capita..." Forrest Gump

Imparare accordo do maggiore

Imparare accordo re maggiore
Never
 
Messaggi: 943
Località: Milano

Re: wake me up when september ends

Messaggiodi Never



Codice: Seleziona tutto
"Wake Me Up When September Ends"

Summer has come and passed
The innocent can never last
wake me up when september ends

like my fathers come to pass
seven years has gone so fast
wake me up when september ends

here comes the rain again
falling from the stars
drenched in my pain again
becoming who we are

as my memory rests
but never forgets what I lost
wake me up when september ends

summer has come and passed
the innocent can never last
wake me up when september ends

ring out the bells again
like we did when spring began
wake me up when september ends

here comes the rain again
falling from the stars
drenched in my pain again
becoming who we are

as my memory rests
but never forgets what I lost
wake me up when september ends

Summer has come and passed
The innocent can never last
wake me up when september ends

like my father's come to pass
twenty years has gone so fast
wake me up when september ends
wake me up when september ends
wake me up when september ends


L'estate è venuta ed è passata
L'innocente non può mai durare
Svegliami quando finisce settembre
Così come è venuto e passato mio padre
sette anni sono volati in fretta
Svegliami quando settembre è finito

Ecco di nuovo la pioggia
che cade dalle stelle
immerso di nuovo nel mio dolore
Diventando chi siamo

Come la mia memoria si riposa
Ma non dimentica mai quello che ho perso
Svegliami quando settembre è finito

Come la mia memoria si riposa
Ma non dimentica mai quello che ho perso
Svegliami quando settembre è finito

Le campane suonano ancora
come abbiamo fatto noi
quando è iniziata la primavera
Svegliami quando finisce settembre

Ecco di nuovo la pioggia
che cade dalle stelle
immerso di nuovo nel mio dolore
Diventando chi siamo

Come la mia memoria si riposa
Ma non dimentica mai quello che ho perso
Svegliami quando settembre è finito

Come la mia memoria si riposa
Ma non dimentica mai quello che ho perso
Svegliami quando settembre è finito

Così come è venuto e passato mio padre
venti anni sono volati in fretta
Svegliami quando settembre è finito

Svegliami quando settembre è finito
Svegliami quando settembre è finito
Svegliami quando settembre è finito

Green Day
Wake Me Up When September Ends

E|--------------||
B|---3---3------||
G|--0---0-------||
D|-5---5--------||
A|--------------||
E|--------------|| x4
Acoustic Guitar.

E|---------------|---------------|---------------|---------------||
B|------3-----3--|------3-----3--|------3-----3--|------3-----3--||
G|----0-----0----|----0-----0----|----0-----0----|----0-----0----||
D|--5-----5------|--4-----4------|--2-----2------|--0-----0------||
A|---------------|---------------|---------------|---------------||
E|---------------|---------------|---------------|---------------||
"Summer Has Come...."

E|-----------------|-----------------|-----------------|-----------------||
B|------5-----5----|------4-----4----|-----3------3----|------3-----3----||
G|----5---5-----5--|----5---5-----5--|---0---0------0--|----0---0-----0--||
D|-----------------|-----------------|-----------------|-----------------||
A|--3-------3------|--3-------3------|-----------------|-----------------||
E|-----------------|-----------------|--3-------3------|--3-------3------||
"Wake Me Up When...."
E|---------------|---------------|---------------|---------------||
B|------3-----3--|------3-----3--|------3-----3--|------3-----3--||
G|----0-----0----|----0-----0----|----0-----0----|----0-----0----||
D|--5-----5------|--4-----4------|--2-----2------|--0-----0------||
A|---------------|---------------|---------------|---------------||
E|---------------|---------------|---------------|---------------||
"Like My Father...."

E|---------------|---------------|---------------|----------------||
B|-----5-----5---|-----4-----4---|----3------3---|-----3------0---||
G|---5---5-----5-|---5---5-----5-|--0---0------0-|---0---0---0--0-||
D|---------------|---------------|---------------|----------------||
A|-3-------3-----|-3-------3-----|---------------|----------------||
E|---------------|---------------|-3-------3-----|-3-------2------||
"Wake Me Up When...."

E|----------------|-----------------|----------------|----------------||
B|-----0-----0----|-----3------3----|-----5-----5----|-----3-------0--||
G|---0---0-----0--|---0---0------0--|---0---0-----0--|---0---0---0---0||
D|----------------|-----------------|----------------|----------------||
A|----------------|-2-------2-------|-3-------3------|----------------||
E|-0-------0------|-----------------|----------------|-3-------2------||
"Here Comes The Rain...."

E|----------------|-----------------|----------------|----------------||
B|-----0-----0----|-----3------3----|-----5-----5----|-----7-------7--||
G|---0---0-----0--|---0---0------0--|---0---0-----0--|---0---0---0---0||
D|----------------|-----------------|----------------|----------------||
A|----------------|-2-------2-------|-3-------3------|-5------5-------||
E|-0-------0------|-----------------|----------------|----------------||
"Drenched In My...."

E|---------------|---------------|---------------|---------------||
B|------3-----3--|------3-----3--|------3-----3--|------3-----3--||
G|----0-----0----|----0-----0----|----0-----0----|----0-----0----||
D|--5-----5------|--4-----4------|--2-----2------|--0-----0------||
A|---------------|---------------|---------------|---------------||
E|---------------|---------------|---------------|---------------||
"Ring Out The....""

E|-----------------|-----------------|-----------------|-----------------||
B|------5-----5----|------4-----4----|-----3------3----|------3-----3----||
G|----5---5-----5--|----5---5-----5--|---0---0------0--|----0---0-----0--||
D|-----------------|-----------------|-----------------|-----------------||
A|--3-------3------|--3-------3------|-----------------|-----------------||
E|-----------------|-----------------|--3-------3------|--3-------3------||
"Wake Me Up When...."

E|--------------||
B|------3-----3-||
G|----0-----0---||
D|--5-----5-----||
A|--------------||
E|--------------|| x2

E|--------------||
B|------3-----3-||
G|----0-----0---||
D|--5-----5-----||
A|--------------||
E|--------------|| x2
Slightly Distorted

E|---------------|---------------|---------------|---------------||
B|------3-----3--|------3-----3--|------3-----3--|------3-----3--||
G|----0-----0----|----0-----0----|----0-----0----|----0-----0----||
D|--5-----5------|--4-----4------|--2-----2------|--0-----0------||
A|---------------|---------------|---------------|---------------||
E|---------------|---------------|---------------|---------------||
(Still Slightly Distorted)"Summer Has Come...."

E|-----------------|-----------------|-----------------|-----------------||
B|-----------------|-----------------|-----------------|-----------------||
G|-5-5-5-5-5-5-5-5-|-5-5-5-5-5-5-5-5-|-----------------|-----------------||
D|-5-5-5-5-5-5-5-5-|-5-5-5-5-5-5-5-5-|-5-5-5-5-5-5-5-5-|-5-5-5-5-5-5-5-5-||
A|-3-3-3-3-3-3-3-3-|-3-3-3-3-3-3-3-3-|-5-5-5-5-5-5-5-5-|-5-5-5-5-5-5-5-5-||
E|---------------- |-----------------|-3-3-3-3-3-3-3-3-|-3-3-3-3-3-3-3-3-||
(Full Distortion) "Wake Me Up When...."

E|---------------|---------------|---------------|---------------||
B|------3-----3--|------3-----3--|------3-----3--|------3-----3--||
G|----0-----0----|----0-----0----|----0-----0----|----0-----0----||
D|--5-----5------|--4-----4------|--2-----2------|--0-----0------||
A|---------------|---------------|---------------|---------------||
E|---------------|---------------|---------------|---------------||
(Still Slightly Distorted)"Like My Father...."

E|-----------------|-----------------|-----------------|-----------------||
B|-----------------|-----------------|-----------------|-----------------||
G|-5-5-5-5-5-5-5-5-|-5-5-5-5-5-5-5-5-|-----------------|-----------------||
D|-5-5-5-5-5-5-5-5-|-5-5-5-5-5-5-5-5-|-5-5-5-5-5-5-5-5-|-5-5-5-5-4-4-4-4-||
A|-3-3-3-3-3-3-3-3-|-3-3-3-3-3-3-3-3-|-5-5-5-5-5-5-5-5-|-5-5-5-5-4-4-4-4-||
E|---------------- |-----------------|-3-3-3-3-3-3-3-3-|-3-3-3-3-2-2-2-2-||
(Full Distortion) "Wake Me Up When...."

Chorus - Still Fully Distoted
E|-----------------|-----------------|-----------------|-----------------||
B|-----------------|-----------------|-----------------|-----------------||
G|-----------------|-4-4-4-4-4-4-4-4-|-5-5-5-5-5-5-5-5-|-----------------||
D|-2-2-2-2-2-2-2-2-|-4-4-4-4-4-4-4-4-|-5-5-5-5-5-5-5-5-|-5-5-5-5-4-4-4-4-||
A|-2-2-2-2-2-2-2-2-|-2-2-2-2-2-2-2-2-|-3-3-3-3-3-3-3-3-|-5-5-5-5-4-4-4-4-||
E|-0-0-0-0-0-0-0-0-|-----------------|-----------------|-3-3-3-3-2-2-2-2-||
"Here Comes The Rain...."

E|-----------------|-----------------|-----------------|-----------------||
B|-----------------|-----------------|-----------------|-----------------||
G|-----------------|-4-4-4-4-4-4-4-4-|-5-5-5-5-5-5-5-5-|-7-7-7-7-7-7-7-7-||
D|-2-2-2-2-2-2-2-2-|-4-4-4-4-4-4-4-4-|-5-5-5-5-5-5-5-5-|-7-7-7-7-7-7-7-7-||
A|-2-2-2-2-2-2-2-2-|-2-2-2-2-2-2-2-2-|-3-3-3-3-3-3-3-3-|-5-5-5-5-5-5-5-5-||
E|-0-0-0-0-0-0-0-0-|-----------------|-----------------|-----------------||
"drenched In My Pain....."

E|---------------|---------------|---------------|---------------||
B|------3-----3--|------3-----3--|------3-----3--|------3-----3--||
G|----0-----0----|----0-----0----|----0-----0----|----0-----0----||
D|--5-----5------|--4-----4------|--2-----2------|--0-----0------||
A|---------------|---------------|---------------|---------------||
E|---------------|---------------|---------------|---------------||
(Still Slightly Distorted)"Like My Father...."

E|-----------------|-----------------|-----------------|-----------------||
B|-----------------|-----------------|-----------------|-----------------||
G|-5-5-5-5-5-5-5-5-|-5-5-5-5-5-5-5-5-|-----------------|-----------------||
D|-5-5-5-5-5-5-5-5-|-5-5-5-5-5-5-5-5-|-5-5-5-5-5-5-5-5-|-5-5-5-5-4-4-4-4-||
A|-3-3-3-3-3-3-3-3-|-3-3-3-3-3-3-3-3-|-5-5-5-5-5-5-5-5-|-5-5-5-5-4-4-4-4-||
E|---------------- |-----------------|-3-3-3-3-3-3-3-3-|-3-3-3-3-2-2-2-2-||
(Full Distortion) "Wake Me Up When...."

Solo Time!
Gtr.1
E|-----7-----7---7-|-----7-----7---7-|-----8-----8---8-|-----------------||
B|-8-8---8-8---8---|-7-7---7-7---7---|-8-8---8-8---8---|-8-8-8-8-7-7-7-7-||
G|-----------------|-----------------|-----------------|-----------------||
D|-----------------|-----------------|-----------------|-----------------||
A|-----------------|-----------------|-----------------|-----------------||
E|-----------------|-----------------|-----------------|-----------------||
Gtr.2
E|-----------------|-----------------|-----------------|-----------------||
B|-----------------|-----------------|-----------------|-----------------||
G|-----------------|-4-4-4-4-4-4-4-4-|-5-5-5-5-5-5-5-5-|-----------------||
D|-2-2-2-2-2-2-2-2-|-4-4-4-4-4-4-4-4-|-5-5-5-5-5-5-5-5-|-5-5-5-5-4-4-4-4-||
A|-2-2-2-2-2-2-2-2-|-2-2-2-2-2-2-2-2-|-3-3-3-3-3-3-3-3-|-5-5-5-5-4-4-4-4-||
E|-0-0-0-0-0-0-0-0-|-----------------|-----------------|-3-3-3-3-2-2-2-2-||
Gtr.1
E|-----7-----7---7-|-----7-----7---7-|-----8-----8---8-||
B|-8-8---8-8---8---|-7-7---7-7---7---|-8-8---8-8---8---||
G|-----------------|-----------------|-----------------||
D|-----------------|-----------------|-----------------||
A|-----------------|-----------------|-----------------||
E|-----------------|-----------------|-----------------||
Gtr.2
E|-----------------|-----------------|-----------------||
B|-----------------|-----------------|-----------------||
G|-----------------|-4-4-4-4-4-4-4-4-|-5-5-5-5-5-5-5-5-||
D|-2-2-2-2-2-2-2-2-|-4-4-4-4-4-4-4-4-|-5-5-5-5-5-5-5-5-||
A|-2-2-2-2-2-2-2-2-|-2-2-2-2-2-2-2-2-|-3-3-3-3-3-3-3-3-||
E|-0-0-0-0-0-0-0-0-|-----------------|-----------------||
Gtr.2
E|-----------------|-----------------|
B|-----------------|-----------------|
G|-7-7-7-7-7-7-7-7-|-7-7-7-7-7-7-7-7-|
D|-7-7-7-7-7-7-7-7-|-7-7-7-7-7-7-7-7-|
A|-5-5-5-5-5-5-5-5-|-5-5-5-5-5-5-5-5-|
E|-----------------|-----------------|x2

E|-----------------|-----------------|
B|-8-8-8-8-8-8-8-8-|-7-7-7-7-7-7-7-7-|
G|-----------------|-----------------|
D|-----------------|-----------------|
A|-----------------|-----------------|
E|-----------------|-----------------| x2

E|--------------||
B|------3-----3-||
G|----0-----0---||
D|--5-----5-----||
A|--------------||
E|--------------|| x4
Accoustic Gtr.1

E|-10------|-10------|-10------|-10---15--||
B|------8--|------8--|------8--|----------||
G|---------|---------|---------|----------||
D|---------|---------|---------|----------||
A|---------|---------|---------|----------||
E|---------|---------|---------|----------|| x2
Clean - Gtr.2
E|---------------|---------------|---------------|---------------||
B|------3-----3--|------3-----3--|------3-----3--|------3-----3--||
G|----0-----0----|----0-----0----|----0-----0----|----0-----0----||
D|--5-----5------|--4-----4------|--2-----2------|--0-----0------||
A|---------------|---------------|---------------|---------------||
E|---------------|---------------|---------------|---------------||
(Accoustic)"Summer Has Come...."

E|-----------------|-----------------|-----------------|-----------------||
B|-----------------|-----------------|-----------------|-----------------||
G|-5-5-5-5-5-5-5-5-|-5-5-5-5-5-5-5-5-|-----------------|-----------------||
D|-5-5-5-5-5-5-5-5-|-5-5-5-5-5-5-5-5-|-5-5-5-5-5-5-5-5-|-5-5-5-5-5-5-5-5-||
A|-3-3-3-3-3-3-3-3-|-3-3-3-3-3-3-3-3-|-5-5-5-5-5-5-5-5-|-5-5-5-5-5-5-5-5-||
E|---------------- |-----------------|-3-3-3-3-3-3-3-3-|-3-3-3-3-3-3-3-3-||
(Full Distortion) "Wake Me Up When...."

E|---------------|---------------|---------------|---------------||
B|------3-----3--|------3-----3--|------3-----3--|------3-----3--||
G|----0-----0----|----0-----0----|----0-----0----|----0-----0----||
D|--5-----5------|--4-----4------|--2-----2------|--0-----0------||
A|---------------|---------------|---------------|---------------||
E|---------------|---------------|---------------|---------------||
(Still Slightly Distorted)"Like My Father...."

E|-----------------|-----------------|-----------------|-----------------||
B|-----------------|-----------------|-----------------|-----------------||
G|-5-5-5-5-5-5-5-5-|-5-5-5-5-5-5-5-5-|-----------------|-----------------||
D|-5-5-5-5-5-5-5-5-|-5-5-5-5-5-5-5-5-|-5-5-5-5-5-5-5-5-|-5-5-5-5-5-5-5-5-||
A|-3-3-3-3-3-3-3-3-|-3-3-3-3-3-3-3-3-|-5-5-5-5-5-5-5-5-|-5-5-5-5-5-5-5-5-||
E|---------------- |-----------------|-3-3-3-3-3-3-3-3-|-3-3-3-3-3-3-3-3-|| x3
(Full Distortion) "Wake Me Up When...."

E|-----------------|-----------------|-----------------|-----------------||
B|-----------------|-----------------|-----------------|-----------------||
G|-5-5-5-5-5-5-5-5-|-5-5-5-5-5-5-5-5-|-----------------|-----------------||
D|-5-5-5-5-5-5-5-5-|-5-5-5-5-5-5-5-5-|-5-5-5-5-5-5-5-5-|-5~--------------||
A|-3-3-3-3-3-3-3-3-|-3-3-3-3-3-3-3-3-|-5-5-5-5-5-5-5-5-|-5~--------------||
E|---------------- |-----------------|-3-3-3-3-3-3-3-3-|-3~--------------||
(Full Distortion) "Wake Me Up When...."


"... la vita è come una scatola di cioccolatini... non sai mai quello che ti capita..." Forrest Gump

Imparare accordo do maggiore

Imparare accordo re maggiore
Never
 
Messaggi: 943
Località: Milano

Re: wake me up when september ends

Messaggiodi Never

... è un pò incasinata... ma si capisce abbastanza...

Non ho trovato altro...


"... la vita è come una scatola di cioccolatini... non sai mai quello che ti capita..." Forrest Gump

Imparare accordo do maggiore

Imparare accordo re maggiore
Never
 
Messaggi: 943
Località: Milano

Messaggiodi stargirl

graaaaaaaaazie...sul serio...grazie grazie grazie...però rimane un problemino come ho già fatto notare da qualche parte non riesco a capirlo...mi avete tentato di spiegarlo ma non capisco :oops: ad esempio
all'inizio no...c'è 5, 0 ,3 ma che note sono???vi prego abbiate pazienzaaa
cmq grazie lo stesso l'ho cercato ovunque


"noi gente che spera cercando qualcosa di più in fondo alla sera“
stargirl
 
Messaggi: 777
Località: messina

Messaggiodi Never

stargirl ha scritto:graaaaaaaaazie...sul serio...grazie grazie grazie...però rimane un problemino come ho già fatto notare da qualche parte non riesco a capirlo...mi avete tentato di spiegarlo ma non capisco :oops: ad esempio
all'inizio no...c'è 5, 0 ,3 ma che note sono???vi prego abbiate pazienzaaa
cmq grazie lo stesso l'ho cercato ovunque


scherzi? Non ci sono problemi ci siamo qua noi apposta...
Vediamo di capire come funzica la TAB...
Ci sono le linee a trattini -----------------
Queste rappresentano le corde della chitarra. Infatti sono 6...
se incolonnate sono di più è perchè ogni tanto (ma solo ogni tanto) la linea va capo da sola...
Ogni linea è intervallata da -----I-------I------- quelle sono le battute in 4/4... ma per il momento non ha importanza...


quando hai ----- 3----4---- significa che sulla corda di riferimento dovrai schiacciare prima il tasto 3 poi il 4.
dove hai 0 non dovrai schiacciare niente... è a vuoto...
Nel nostro caso

E|--------------||
B|---3---3------||
G|--0---0-------||
D|-5---5--------||
A|--------------||
E|--------------||

suonerai prima il tasto 5 sulla corda D poi a vuoto la corda G poi la corda B sul terzo tasto... e poi ripeti...
Prova a mettere le dita così indice seconda corda terzo tasto e medio quarta corda 5 tasto... lascia libera la terza corda!!!
Ora arpeggia come detto sopra....
Chettenepare??

E' più chiaro ora...?
Se no insisto... prova e fammi sapere....
...dove i numeri sono uno sotto l'altro si suoneranno contemporaneamente.... a mo di accordo...


"... la vita è come una scatola di cioccolatini... non sai mai quello che ti capita..." Forrest Gump

Imparare accordo do maggiore

Imparare accordo re maggiore
Never
 
Messaggi: 943
Località: Milano

Messaggiodi stargirl

oddio.....funzionaaaaa...non ci posso credere è una vita che cerco di fare questa canzone...lo so che il forum è fatto per questo ma voi siete lo stesso troppo gentili e sopratutto pazienti... :mrgreen: quindi...graaazie :P


"noi gente che spera cercando qualcosa di più in fondo alla sera“
stargirl
 
Messaggi: 777
Località: messina

Messaggiodi CrAzYfAbIoL0

bellissima...........sono riuscito a fae solo l'inizio però....le mie dita non hanno certe capacità....ma prima o poi ce la farò....
thanks for all songs :P :P


'Sei mai stato felice?' .. 'Si era un giovedì..'

Imparare a suonare i Power Chords con la chitarra
CrAzYfAbIoL0
 
Messaggi: 2046
Località: Sardegna / Emilia-Romagna

Wake me up when september ends - Green day

Messaggiodi lorenzo

Codice: Seleziona tutto
--Wake Me Up When September Ends--

                   Green Day





SOL        RE

Summer has come and passed

MIm              SIm

The innocent can never last

DO          DOm           SOL

wake me up when september ends



SOL            RE

like my fathers come to pass

MIm              SIm

seven years has gone so fast

DO         DOm            SOL

wake me up when september ends



MIm             SIm

here comes the rain again

DO               SOL

falling from the stars

MIm             SIm

drenched in my pain again

DO              RE

becoming who we are



SOL        SIm   

as my memory rests

MIm7                SOL 

but never forgets what I lost

DO         DOm            SOL

wake me up when september ends



SOL       SIm

Summer has come and passed

MIm7              SOL

The innocent can never last

DO         DOm            SOL

wake me up when september ends



SOL            SIm 

like my fathers come to pass

MIm7              SOL/RE

seven years has gone so fast

DO         DOm            SOL

wake me up when september ends





MIm             SIm

here comes the rain again

DO               SOL

falling from the stars

MIm             SIm

drenched in my pain again

DO              RE

becoming who we are



SOL        SIm   

as my memory rests

MIm7                SOL 

but never forgets what I lost

DO         DOm            SOL

wake me up when september ends



SOL       SIm

Summer has come and passed

MIm7               SOL

The innocent can never last



DO          DOm           SOL

wake me up when september ends



SOL            SIm 

like my fathers come to pass

DO              SOL

seven years has gone so fast

DO         DOm            SOL

wake me up when september ends

DO         DOm            SOL

wake me up when september ends

DO         DOm            SOL

wake me up when september ends





this is the end, my only friend, the end
lorenzo
 
Messaggi: 217
Località: carrara

Messaggiodi Clapton

Ma si può avere la parte dell'arpeggio iniziale?
Grazie!


Clapton
 
Messaggi: 1803
Località: Caltanissetta

Messaggiodi Guit'EmAll

Clapton ha scritto:Ma si può avere la parte dell'arpeggio iniziale?
Grazie!


Ti inserisco l'intera Tab, faccio prima:

Codice: Seleziona tutto

Wake Me Up When September Ends Tab by Green Day, www.Ultimate-Guitar.Com


Song:      Wake Me Up When September Ends
Artist:    Green Day
Album:     American Idiot
Tabbed by: Dan Benz (DanSumthing@wi.rr.com)

This is a great song from an incredible album. I heard the intro to this
and I had to tab the whole thing.  Easily my best tab, it took me a long
time because I wanted to get every note right.

For the acoustic verse and bridge, I tabbed each note out the way it's
played on the album, but if you'd rather just play the chords, they're
written above the tablature. See below for chord fingerings.

C    - |x32010|   Em - |022000|   
Cm   - |x35543|   Bm - |x24432|   
G    - |3x0033|   D  - |xx0232|
G/Gb - |200033|   

__________________________________________________||
--------------------------------------------------||
Edit (7/28/05) :                                  ||
                                                  ||
     Changed this                To this          ||
e| |----0-----0-----|     e| |----------------|   ||
B| |----1-1---1---1-|     B| |----5-----5-----|   ||
G| |--0-------0-----|     G| |----5-5---5---5-|   ||
D| |----------------|     D| |--5-------5-----|   ||
A| |3-------3-------|     A| |3-------3-------|   ||
E| |----------------|     E| |----------------|   ||
                                                  ||
In Verse 1, playing the bar chord version of the  ||
C chord makes it much easier to transition to     ||
the Cm chord that follows it.                     ||
__________________________________________________||
--------------------------------------------------||

{Intro (acoustic)
{e| |----------------|----------------|----------------|----------------|
{B| |----3-----3-----|----3-----3-----|----3-----3-----|----3-----3-----|
{G| |--0-----0-------|--0-----0-------|--0-----0-------|--0-----0-------|
{D| |5-----5---------|5-----5---------|5-----5---------|5-----5---------|
{A| |----------------|----------------|----------------|----------------|
{E| |----------------|----------------|----------------|----------------|

{Verse 1
{e| |----------------|----------------|----------------|----------------|
{B| |----3-----3-----|----3-----3-----|----3-----3-----|----3-----3-----|
{G| |--0-----0-------|--0-----0-------|--0-----0-------|--0-----0-------|
{D| |5-----5---------|4-----4---------|2-----2---------|0-----0---------|
{A| |----------------|----------------|----------------|----------------|
{E| |----------------|----------------|----------------|----------------|
{
{    C                Cm               G                G
{e| |----------------|----------------|----------------|----------------|
{B| |----5-----5-----|----4-----4-----|----3-----3-----|----3-----3-----|
{G| |----5-5---5---5-|--5---5---5---0-|----0-0---0---0-|----0-0---0---0-|
{D| |--5-------5-----|--------5-----0-|--0-------0-----|--0-------0-----|
{A| |3-------3-------|3---------------|----------------|----------------|
{E| |----------------|----------------|3-------3-------|3-------3-------|
                                                   
Repeat Verse 1 except final measure, then              G       G/Gb     
                                          play         |----3-----------|
                                               this >  |----3-------3-0-|
                                                    >  |----0-0-----0---|
                                                    >  |--0-------------|
                                                       |----------0-----|
                                                       |3-------2-------|
Bridge
     Em               Bm               C                G       G/Gb
e| |----------------|----------------|----0-----0-----|----3-----------|
B| |----0-----0-----|----3-----3-----|----1-1---1-----|----3-------3-0-|
G| |----0-0---0-----|----4-----4-----|--0-------0---0-|----0-0-----0---|
D| |--2-------2---0-|--4---4-------4-|--------------0-|--0-------------|
A| |----------------|2-------2-------|3-------3-------|----------0-----|
E| |0-------0-------|----------------|----------------|3-------2-------|
                 
     Em               Bm               C                D
e| |----------------|----------------|----0-----0-----|----2-----2-----|
B| |----0-----0-----|----3-----3-----|----1-1---1-----|----3-3---3-----|
G| |----0-0---0-----|----4-----4-----|--0-------0---0-|--2---2---2---0-|
D| |--2-------2---0-|--4---4-------4-|----------------|0-------0-------|
A| |----------------|2-------2-------|3-------3-------|----------------|
E| |0-------0-------|----------------|----------------|----------------|

Repeat Verse 1

Repeat Intro

W/Distortion,
Play 2 measures of Intro, then play
the first 4 measures of Verse 1

{Chorus
{    C                Cm               G5
{e| |----------------|----------------|----------------|----------------|
{B| |5-5-5-5-5-5-5-5-|4-4-4-4-4-4-4-4-|----------------|----------------|
{G| |5-5-5-5-5-5-5-5-|5-5-5-5-5-5-5-5-|----------------|----------------|
{D| |5-5-5-5-5-5-5-5-|5-5-5-5-5-5-5-5-|5-5-5-5-5-5-5-5-|5-5-5-5-5-5-5-5-|
{A| |3-3-3-3-3-3-3-3-|3-3-3-3-3-3-3-3-|5-5-5-5-5-5-5-5-|5-5-5-5-5-5-5-5-|
{E| |----------------|----------------|3-3-3-3-3-3-3-3-|3-3-3-3-3-3-3-3-|

Play the first 4 measures of Verse 1, then,

     C                Cm               G5                       G5/Gb
e| |----------------|----------------|----------------|----------------|
B| |5-5-5-5-5-5-5-5-|4-4-4-4-4-4-4-4-|----------------|----------------|
G| |5-5-5-5-5-5-5-5-|5-5-5-5-5-5-5-5-|----------------|----------------|
D| |5-5-5-5-5-5-5-5-|5-5-5-5-5-5-5-5-|5-5-5-5-5-5-5-5-|5-5-5-5-5-5-5-5-|
A| |3-3-3-3-3-3-3-3-|3-3-3-3-3-3-3-3-|5-5-5-5-5-5-5-5-|5-5-5-5-5-5-5-5-|
E| |----------------|----------------|3-3-3-3-3-3-3-3-|3-3-3-3-2-2-2-2-|

Distorted Bridge
     E5               Bm               C5               G5      G5/Gb
e| |----------------|----------------|----------------|----------------|
B| |----------------|----3-----------|----------------|----------------|
G| |----------------|4-4-4-4-4-4-4-0-|5-5-5-5-5-5-5-0-|----------------|
D| |2-2-2-2-2-2-2-2-|4-4-4-4-4-4-4-0-|5-5-5-5-5-5-5-0-|5-5-5-5-5-5-5-0-|
A| |2-2-2-2-2-2-2-2-|2-2-2-2-2-2-2-0-|3-3-3-3-3-3-3-0-|5-5-5-5-5-5-5-0-|
E| |0-0-0-0-0-0-0-0-|----------------|----------------|3-3-3-3-2-2-2-0-|

     E5               Bm               C5               D5           
e| |----------------|----------------|----------------|----------------|
B| |----------------|----3-3-3-3-3---|----------------|----------------|
G| |----------------|4-4-4-4-4-4-4-0-|5-5-5-5-5-5-5-5-|7-7-7-7-7-7-7-7-|
D| |2-2-2-2-2-2-2-2-|4-4-4-4-4-4-4-0-|5-5-5-5-5-5-5-5-|7-7-7-7-7-7-7-7-|
A| |2-2-2-2-2-2-2-2-|2-2-2-2-2-2-2-0-|3-3-3-3-3-3-3-3-|5-5-5-5-5-5-5-5-|
E| |0-0-0-0-0-0-0-0-|----------------|----------------|----------------|

e| |----------------|------------3---|----------------|----------------|
B| |----3-----3-----|----3-----3-----|----3-----3-----|----3-----3-----|
G| |--0-----0-------|--0-----0-------|--0-----0-------|--0-----0-------|
D| |5-----5---------|4-----4---------|2-----2---------|0-----0---------|
A| |----------------|----------------|----------------|----------------|
E| |----------------|----------------|----------------|----------------|

     C                Cm               G5                       G5/Gb
e| |----------------|----------------|----------------|----------------|
B| |5-5-5-5-5-5-5-5-|4-4-4-4-4-4-4-4-|----------------|----------------|
G| |5-5-5-5-5-5-5-5-|5-5-5-5-5-5-5-5-|----------------|----------------|
D| |5-5-5-5-5-5-5-5-|5-5-5-5-5-5-5-5-|5-5-5-5-5-5-5-5-|5-5-5-5-5-5-5-5-|
A| |3-3-3-3-3-3-3-3-|3-3-3-3-3-3-3-3-|5-5-5-5-5-5-5-5-|5-5-5-5-5-5-5-5-|
E| |----------------|----------------|3-3-3-3-3-3-3-3-|3-3-3-3-2-2-2-2-|

{Solo
{Guitar1                               
{e| |----------------|----------------|----------------|----------------|
{B| |----12----12--12|----12----12--12|----13----13--13|1515151515151515|
{G|/|1212--1212--12--|1111--1111--11--|1212--1212--12--|1212121211111111|
{D| |----------------|----------------|----------------|----------------|
{A| |----------------|----------------|----------------|----------------|
{E| |----------------|----------------|----------------|----------------|
{
{e| |----------------|----------------|----------------|----------------|
{B| |----12----12--12|----12----12--12|----13----13--13|1515151515151515|
{G| |1212--1212--12--|1111--1111--11--|1212--1212--12--|1212121212121212|
{D| |----------------|----------------|----------------|----------------|
{A| |----------------|----------------|----------------|----------------|
{E| |----------------|----------------|----------------|----------------|
{
{e| |----------------|----------------|----------------|
{B| |1515151515151515|1515151515151515|1515151515151515|
{G| |1111111111111111|1212121212121212|1111111111111111| Go to the next
{D| |----------------|----------------|----------------| Guitar1 section
{A| |----------------|----------------|----------------|
{E| |----------------|----------------|----------------|

{Guitar2 (Rhythm Guitar) during the Solo
{    E5               Bm               C5               G5      G5/Gb
{e| |----------------|----------------|----------------|----------------|
{B| |----------------|----3-----------|----------------|----------------|
{G| |----------------|4-4-4-4-4-4-4-0-|5-5-5-5-5-5-5-0-|----------------|
{D| |2-2-2-2-2-2-2-2-|4-4-4-4-4-4-4-0-|5-5-5-5-5-5-5-0-|5-5-5-5-5-5-5-5-|
{A| |2-2-2-2-2-2-2-2-|2-2-2-2-2-2-2-0-|3-3-3-3-3-3-3-0-|5-5-5-5-5-5-5-5-|
{E| |0-0-0-0-0-0-0-0-|----------------|----------------|3-3-3-3-2-2-2-2-|
{
{    E5               Bm               C5               D5           
{e| |----------------|----------------|----------------|----------------|
{B| |----------------|----3-----------|----------------|3-3-3-3-3-3-3-3-|
{G| |----------------|4-4-4-4-4-4-4-0-|5-5-5-5-5-5-5-5-|2-2-2-2-2-2-2-2-|
{D| |2-2-2-2-2-2-2-2-|4-4-4-4-4-4-4-0-|5-5-5-5-5-5-5-5-|0-0-0-0-0-0-0-0-|
{A| |2-2-2-2-2-2-2-2-|2-2-2-2-2-2-2-0-|3-3-3-3-3-3-3-3-|----------------|
{E| |0-0-0-0-0-0-0-0-|----------------|----------------|----------------|
{
{    D5           
{e| |----------------|----------------|----------------|
{B| |3-3-3-3-3-3-3-3-|3-3-3-3-3-3-3-3-|3-3-3-3-3-3-3-3-|
{G| |2-2-2-2-2-2-2-2-|2-2-2-2-2-2-2-2-|2-2-2-2-2-2-2-2-|
{D| |0-0-0-0-0-0-0-0-|0-0-0-0-0-0-0-0-|0-0-0-0-0-0-0-0-|
{A| |----------------|----------------|----------------|
{E| |----------------|----------------|----------------|

Guitar2 (still w/distortion)
     G
e| |3---------------|
B| |3---------------|
G| |0---------------|
D| |----------------|
A| |----------------|
E| |----------------|

{Guitar1 (clean/acoustic)
{e| |----------------|----------------|----------------|----------------|
{B| |----3-----3-----|----3-----3-----|----3-----3-----|----3-----3-----|
{G| |--0-----0-------|--0-----0-------|--0-----0-------|--0-----0-------|
{D| |5-----5---------|5-----5---------|5-----5---------|5-----5---------|
{A| |----------------|----------------|----------------|----------------|
{E| |----------------|----------------|----------------|----------------|
{
{e| |----------------|----------------|----------------|----------------|
{B| |----3-----3-----|----3-----3-----|----3-----3-----|----3-----3-----|
{G| |--0-----0-------|--0-----0-------|--0-----0-------|--0-----0-------|
{D| |5-----5---------|4-----4---------|2-----2---------|0-----0---------|
{A| |----------------|----------------|----------------|----------------|
{E| |----------------|----------------|----------------|----------------|

W/Distortion for the rest of the song,
Play the Chorus,

Play the first 4 measures of Verse 1,

Repeat the Chorus 2X,

End with:
     C                Cm               G5
e| |----------------|----------------|----------------|----------------|
B| |5-5-5-5-5-5-5-5-|4-4-4-4-4-4-4-4-|----------------|----------------|
G| |5-5-5-5-5-5-5-5-|5-5-5-5-5-5-5-5-|----------------|----------------|
D| |5-5-5-5-5-5-5-5-|5-5-5-5-5-5-5-5-|5-5-5-5-5-5-5-5-|5---------------|
A| |3-3-3-3-3-3-3-3-|3-3-3-3-3-3-3-3-|5-5-5-5-5-5-5-5-|5---------------|
E| |----------------|----------------|3-3-3-3-3-3-3-3-|3---------------|



TRATTA DAL SITO: http://www.ultimate-guitar.com/tabs/g/g ... ds_tab.htm


Guit'EmAll
 
Messaggi: 10366
Località: VI PIACEREBBE SAPERLO, EH??? :D

Messaggiodi Clapton

Grazie Guit!

P.S.: Potresti aiutarmi se puoi con l'altra canzone? Vai sul topic di Because you live di Jesse McCartney!
Grazie! :wink:


Clapton
 
Messaggi: 1803
Località: Caltanissetta

Messaggiodi Guit'EmAll

:wink:

Dell'altra canzone non ho trovato Tabs, mi spiace.....


Guit'EmAll
 
Messaggi: 10366
Località: VI PIACEREBBE SAPERLO, EH??? :D

Messaggiodi Clapton

Grazie!:wink:
Ora ci studio un pò e vedo se almeno capisco le pennate!
E anche qualche accordo che è poco corretto!


Clapton
 
Messaggi: 1803
Località: Caltanissetta

Messaggiodi himynameisAntraX

Comunque credo che sia sbagliata la parte degli accordi.
Durante la strofa, non dovrebbe essere Sol, Sim, Mim, Sim?
E comunque non cpasico.. la TAB che hai inserito suona la canzone in Do, come mai visto che è in Sol... i Green Day per lo meno la fanno in sol...?


himynameisAntraX
 
Messaggi: 7
Località: The Land of make believe, which don't believe in me

Prossimo


Torna a Accordi TAB Riff testo chords - Studiare canzoni


Chi c’è in linea

Visitano il forum: Dufresne e 13 ospiti