Accordi tab arpeggio Classiche - Giochi proibiti

Hai trovato gli accordi chords di una canzone ad orecchio e vorresti suggerirla? Oppure vuoi proporre la TAB per chitarra del tuo Riff preferito? il testo? Questo è il forum giusto! Anche per suggerimenti sul ritmo di una canzone. Ricordati di usare la funzione cerca...

Accordi tab arpeggio Classiche - Giochi proibiti

Messaggiodi SiMo_88

Spartito di giochi proibiti https://amzn.to/2DN9HMs

CIao a tutti!
volevo sapere se era possibile ricevere gli accordi o meglio la tablatura del pezzo "giochi proibiti".

E' un pezzo bellissimo l'ho sentito suonare l'altra sera da un mio amico sulla chitarra e mi sono profandamente innamorato della canzone, devo assolutamente riuscire a suonarla!

Aiutatemi per favoreee

grazie mille a chi mi risponderà!


Avatar utente
SiMo_88
 
Messaggi: 6


Accordi tab arpeggio Classiche - Giochi proibiti

Messaggiodi rufus89

eccola...

Codice: Seleziona tutto
G-16-------16-------16---------------------------------------------
D----------------------------19-------17-------17-------16---------
A----14-------14-------14-------14-------14-------14-------14------
E-------15-------15-------15-------15-------15-------15-------15---


G----------------------------16-------21-------21-------21---------
D-14-------14-------17---------------------------------------------
A----14-------14-------14-------14-------19-------19-------19------
E-------15-------15-------15-------15-------15-------15-------15---


G-19-------17-------17-------17-------16-------14-------14---------
D-------------14-------14-------14-------14-------14-------14------
A----19----------15-------15-------15-------15-------15-------15---
E-------15---------------------------------------------------------


G-16-------17-------16-------16-------16-------17-------16---------
D----14-------14-------16-------16-------16-------16-------16------
A-------15-------15-------18-------18-------18-------18-------18---
E------------------------------------------------------------------


G-19-------17-------16-------16------------------------------------
D----16-------16-------16-------------19-------17-------17---------
A-------18-------18-------18----14-------14-------14-------14------
E----------------------------------15-------15-------15-------15---


G------------------------------------------------------------------
D-16-------14-------14-------16-------17-------16-------14---------
A----14-------14-------14-------14-------14-------14-------14------
E-------15-------15-------15-------15-------15-------15-------15---


G------9-----------|
D------9-----------| FINE.
A------7-----------|
E------0-----------|


"In ogni conflitto le manovre regolari portano allo scontro, e quelle imprevedibili alla vittoria." (Sun Tzu - L'arte della guerra)

Accordi e tab Asaf Avidan
rufus89
 
Messaggi: 1002
Località: Latina

Accordi tab arpeggio Classiche - Giochi proibiti

Messaggiodi Pink Floyd

io questa canzone l'ho cercata ma nn vi dico cosa mi è uscito qnd su Google ho digitato "Giochi proibiti"...
diciamo sl che il mio antivirus ha dovuto lavorare parecchio


Pink Floyd
 
Messaggi: 72
Località: nel mondo

Accordi tab arpeggio Classiche - Giochi proibiti

Messaggiodi dog_on_the_wing

...è più che comprensibile... :)


When I'm a good dog they throw me a bone in...
dog_on_the_wing
 
Messaggi: 25

Accordi tab arpeggio Classiche - Giochi proibiti

Messaggiodi Dufresne

qui c'è il video ed il link allo spartito... tablature...

Codice: Seleziona tutto
Song:Giochi Proibiti (Forbidden games)
Author:Anonimous

It's written in 3/4 but i'll write it in 4/4 because i don't remember
exactly the timing...but i guess that a lot of you have already listened
to this song before...It's not easy because it's composed by weird
difficult chords played in arpeggios....

G-16-------16-------16---------------------------------------------
D----------------------------19-------17-------17-------16---------
A----14-------14-------14-------14-------14-------14-------14------
E-------15-------15-------15-------15-------15-------15-------15---


G----------------------------16-------21-------21-------21---------
D-14-------14-------17---------------------------------------------
A----14-------14-------14-------14-------19-------19-------19------
E-------15-------15-------15-------15-------15-------15-------15---


G-19-------17-------17-------17-------16-------14-------14---------
D-------------14-------14-------14-------14-------14-------14------
A----19----------15-------15-------15-------15-------15-------15---
E-------15---------------------------------------------------------


G-16-------17-------16-------16-------16-------17-------16---------
D----14-------14-------16-------16-------16-------16-------16------
A-------15-------15-------18-------18-------18-------18-------18---
E------------------------------------------------------------------


G-19-------17-------16-------16------------------------------------
D----16-------16-------16-------------19-------17-------17---------
A-------18-------18-------18----14-------14-------14-------14------
E----------------------------------15-------15-------15-------15---


G------------------------------------------------------------------
D-16-------14-------14-------16-------17-------16-------14---------
A----14-------14-------14-------14-------14-------14-------14------
E-------15-------15-------15-------15-------15-------15-------15---


G------9-----------|
D------9-----------| FINE.
A------7-----------|
E------0-----------|


Dufresne
 
Messaggi: 6160

Accordi tab arpeggio Classiche - Giochi proibiti

Messaggiodi marossot

Ciao, ho cominciato a suonare da non molto e ieri mi sono messo lì a provare a imparare il mio primo assolo..giochi proibiti..ma alcune posizioni sono difficilissime per me!

Secondo voi è troppo difficile per uno che comincia?
Oppure devo solo insisitere finchè ci riesco?
Se secondo voi è troppo difficile, non ne avete uno facile da consigliarmi per cominciare?
Che ne so, tipo Certe Notti di Ligabue o qualcosa di analogo?

Grazie a tutti,
Marco


marossot
 
Messaggi: 7
Località: Via Morazzone, 20 10131 Torino

Giochi Proibiti ( Romance ) - per chitarra classica

Messaggiodi SoundOfDreams

Sono video che ho fatto oggi ad un ragazzo cojn cui devo preparare alcune fasi dello spettacolo finale della settimana dello studente,mi scuso se ogni tanto parlo o c'è la mia voce.. tipo un : "Porc* tro*a Non parlate vicino alla videocamera" :) ,oggi non c'era il chitarrista elettrico altrimenti avrei anche filmato qualcosina di utile
Giochi Probiti


Ultima modifica di SoundOfDreams su , modificato 1 volte in totale.


SoundOfDreams
 
Messaggi: 12638
Località: Villa Literno (Caserta)

Accordi tab arpeggio Classiche - Giochi proibiti

Messaggiodi Mauro80

Brava Lù, che camera-woman... :)

Bellissima la seconda


Mauro80
 
Messaggi: 7933
Località: TO

Accordi tab arpeggio Classiche - Giochi proibiti

Messaggiodi annika

io la faccio in un modo un po' più semplice....

Codice: Seleziona tutto
                                                           
---7---------7---------7-------|--7---------5---------3-------|--3---------2---------0-------|
------0---------0---------0----|-----0---------0---------0----|-----0---------0---------0----|
---------0---------0---------0-|--------0---------0---------0-|--------0---------0---------0-|
-------------------------------|------------------------------|------------------------------|                   
-------------------------------|------------------------------|------------------------------|
---0---------0---------0-------|--0---------0---------0-------|--0---------0---------0-------|

---0---------3---------7-------|--12---------12---------12-------|---12---------10---------8--------|
------0---------0---------0----|------0-----------0----------0----|------0----------0---------0----|
---------0---------0---------0-|---------0-----------0----------0-|---------0---------0--------0-|
-------------------------------|---------------------------------|---------------------------------|
-------------------------------|---------------------------------|---------------------------------|
---0---------0---------0-------|--0----------0----------0---------|---0----------0----------0--------|

                                                                                      B VII
---8---------7---------5-------|---5---------7---------8-------|---7---------8---------7-------|
------5---------5---------5----|------5---------5---------5----|------5---------7---------7----|
---------5---------5---------5-|---------5---------5---------5-|---------8---------8---------8-|
--------------------------------|-----------------------------|------------------------------|
---0---------0---------0-------|---0---------0---------0-------|--------------------------------|
--------------------------------|------------------------------|---7---------7---------7-------|

---10---------8---------7--------|
-------7----------7---------7----|
----------8----------8---------8-|
----------------------------------|
----------------------------------|
---7---------7---------7---------|



scusate x la tab tutta sbilenca, ma almeno un minimo si capisce XD
a breve posterò la 2^ parte...


...occhio per occhio.. e il mondo diventa cieco... (Gandhi)
annika
 
Messaggi: 78

Re: Giochi Proibiti ( Romance ) - per chitarra classica

Messaggiodi Il Giustiziere delle note

Codice: Seleziona tutto
GIOCHI PROIBITI

N0 [MIm]                     [MI4] [MIm]       [MIm9] [MIm]     
E -7------7-----7-----7------5-----3-----3------2-----0-----0-----
B ----0-----0-----0------0-----0-----0------0-----0-----0------0--
G ------0-----0-----0------0-----0-----0------0-----0-----0------0
D ----------------------------------------------------------------
A ----------------------------------------------------------------
E -0------------------0------------------0------------------0-----


                                          [MIm7] [MImb6] [LAm] N1
E -3-----7-----12------12-----12-----12------10-----8-----8------7-
B ---0-----0-------0------0------0-------0------0-----0------5-----
G -----0-----0-------0------0------0-------0------0-----0------5---
D -----------------------------------------------------------------
A --------------------------------------------------------0--------
E -------------0---------------------0-----------------------------


[LAmadd9] [LAm][LAmadd9] [LAm] N2 [SI] [SIaddb9][SI]   [SIaddb9]
E ----5-----5------7-----8-----7--------8-----7------11-------8----
B 5-----5------5-----5-----5--------7-----7-----7---------7-----7--
G --5-----5------5-----5-----5--------8-----8-----8---------8-----8
D -----------------------------------------------------------------
A ----------0------------------------------------------------------
E -----------------------------7---------------------7-------------


  [SI]   N0 [MIm] [MI4] [MIm]    [MIm9] [MIm]  N3 [SI7]
E -7-----7------5-----3-----3------2-----0-----2------2-----2-----2
B ---7------0-----0-----0------0-----0-----0------0-----0-----0----
G -----8------0-----0-----0------0-----0-----0------2-----2-----2--
D -----------------------------------------------------------------
A ---------------------------------------------2------------------2
E -------0------------------0--------------------------------------


[SI7#5][SI7]   N4 [MIm][MIm/SI][MIm/SOL][MIm] N5[MI]
E ------3-----2-----0------0-----0------0--|--4-----4-----4-----4---
B --0-----0-----0------0-----0-----0----0--|----0-----0-----0------0
G ----2-----2-----2------0-----0-----0--0--|------1-----1-----1-----
D ------------------2-------------------2--|------------------------
A -------------------------2------------2--|------------------------
E -------------------------------3------0--|--0-----------------0---


   [MIadd9][MI] N6 [SI7/4][SI7]          [SIm7][SI7]  N2[SIadd9]
E ---2-----0-------------------------------------------9------9----
B -----0-----0---5------4-----4-----4------3-----4--------7-----7--
G -1-----1-----1----2-----2-----2------2-----2-----2--------8-----8
D --------------------4-----4-----4------4-----4-----4-------------
A -----------------------------------------------------------------
E ---------------2------------------2------------------7-----------


              [SI][SIaddb9]  N7[MI6][MI]              [MI6][MI]
E -9-----9------11-----9-----9------7-----7-----7------9----11-----
B ---7------7------7-----7------9-----9-----9------9-----9-----9---
G -----8------8------8-----8------9-----9-----9------9-----9-----9-
D -----------------------------------------------------------------
A -----------------------------------------------------------------
E -------7-------------------0------------------0------------------


                              [MI7+] [MI7]    N8 [LA]
E 12------12-----12-----12------11-----10-----9------9-----9-----9-
B ----9------9------9-------9------9------9------5-----5-----5-----
G ------9------9------9-------9------9------9------6-----6-----6---
D -----------------------------------------------------------------
A --------------------------------------------0------------------0-
E 0---------------------0------------------------------------------


  [LAadd9] [LA]    N5 [MI]                 [MI9] [MI]  N9[SI7/13]
E -----7-----5-----4------4-----4-----4------2-----0-----4------4-
B -5-----5-----5------0-----0-----0------0-----0-----0------4-----
G ---6-----6-----6------1-----1-----1------1-----1-----1------2---
D ----------------------------------------------------------------
A -------------------------------------------------------2--------
E -----------------0------------------0---------------------------


                 [SI7]        NX[MI][MI/SI][MI/SOL#][MI]
E ----4-----4------5-----2-----0------0-----0-----0-|
B 4-----4------4-----4-----4------0-----0-----0---0-|
G --2-----2------2-----2-----2------1-----1-----1-1-|
D -----------------------------2------------------2-|
A ----------2-------------------------2-----------2-|
E ------------------------------------------4-----0-|


***********
N0 : mano sinistra libera, si alternano le dita solo sulla prima corda (MI cantino)
N1 : metti l'indice a barrè sulle prime tre corde (5° tasto), e alterna il mignolo e l'anulare sulla prima
N2 : l'indice a barrè sul 7° tasto, il medio sulla terza corda all'8° tasto, alterna mignolo e anulare sulla prima
N3 : il medio sul 2° tasto / 5°corda, l'anulare sul 2° tasto / 3° corda, il mignolo alternato sulla prima
N4 : passaggio da un MIm a un MIm/SOL(322000) e poi ancora un MIm
N5 : l'indice sul 1°tasto / 3°corda, mignolo e anulare alternati sulla prima
N6 : sequenza di SI7/4 SI7 SIm7 SI7
N7 : premute 2° e 3° corda/ 9°tasto, alterna indice e mignolo sulla prima
N8 : indice su 1° e 2°corda/5°tasto, medio su 3°corda/6°tasto
N9 : indice a barrè sul 2° tasto, anulare su 2°corda/4°tasto, mignolo alternato sulla prima corda
NX : chiude con un MI MI/SOL# MI



Ultima modifica di Il Giustiziere delle note su , modificato 2 volte in totale.


Il Giustiziere delle note
 
Messaggi: 605

Accordi tab arpeggio Classiche - Giochi proibiti

Messaggiodi Ge_Ge

Bellissimo pezzo anche io lo adoro
grazie per tab amici


Ge_Ge
 
Messaggi: 128




Torna a Accordi TAB Riff testo chords - Studiare canzoni


Chi c’è in linea

Visitano il forum: Nessuno e 18 ospiti