Pagina 1 di 1

Accordi Tablatura intro ritmo ubriaco canta amore bandabardò

MessaggioInviato:
di punkrock16


Ragazzi qualcuno sai darmi qualke link dove trovare la tabs di ubriaco canta amore???non gli accordi..avrei bisogno proprio la tabs...grazie ciao

Re: Tablatura ubriaco canta amore..bandabardò

MessaggioInviato:
di wladdo75
punkrock16 ha scritto:Ragazzi qualcuno sai darmi qualke link dove trovare la tabs di ubriaco canta amore???non gli accordi..avrei bisogno proprio la tabs...grazie ciao


Ciao Punk benvenuto nel forum

Ti do subitissimo un utile consiglio
del quale non potrai più fare a meno:

Utilizza la funzione CERCA che trovi in alto a destra...ci clikki e nella
prima casella bianca ci scrivi il titolo della canzone che cerchi o l'autore!

Il canzoniere dei BANDABRDO' era solo 3 cm sopra il tuo messaggio....
tutto questo solo per evitare che tra 3 giorni qualcuno richieda la stessa canzone e cosi via..... :)

Per facilitarti la cosa ecco qui il link esatto e buon divertimento!!!!

----->> http://chitarradaspiaggia.com/forum/viewtopic.php?t=2675&highlight=bandabard%F2<<------- :mrgreen:

Ciaooooo :x

MessaggioInviato:
di Dufresne
lasciamo il topic giusto perchè hai specificato che cerchi le tab e non gli accordi. Senti ma ti interessa in particolare l'assolino di piano-chitarra? perchè non so si trova le tab (ora vedo) però semmai te lo butto giù io appena ho tempo...

Accordi Tablatura intro ritmo ubriaco canta amore bandabardò

MessaggioInviato:
di punkrock16
Si Lo visto il canzoniere della bandabardò...ma li c'è solo testo ed accordi io ho bisogno proprio la tabs...mi serve l'intro e poi l'assolino della canzone...per questo ho messo il post!!cmq grazie!! :wink:

Accordi Tablatura intro ritmo ubriaco canta amore bandabardò

MessaggioInviato:
di wladdo75
punkrock16 ha scritto:Si Lo visto il canzoniere della bandabardò...ma li c'è solo testo ed accordi io ho bisogno proprio la tabs...mi serve l'intro e poi l'assolino della canzone...per questo ho messo il post!!cmq grazie!! :wink:


ok sorry :oops: :oops:

Accordi Tablatura intro ritmo ubriaco canta amore bandabardò

MessaggioInviato:
di davidino15284
Vedete un po' se suona bene


E|-7-5----10-8-----7-------
B|-5---5--8----10--0-------
G|-5------8---------7-------
D|-5------8---------6-------
A|-------------------7-------
E|------------------------






E ----------------------------------------------------------12----------------------------------------------
B -----12--10---------10---12--13--12--10-------10-----------10---12--13--12--10----10---------
G ---------------9--------------------------------12-----------------------------------------12----9------
D -----------------------------------------------------------------------------------------------------------
A -----------------------------------------------------------------------------------------------------------
E -----------------------------------------------------------------------------------------------------------


E ----------------------------------------------------------------------
B ---10---12--13--12--10-------------------------------------------
G -----------------------------9---------------------------------------
D ---------------------------------12---10---12---10---9-----------
A ---------------------------------------------------------------------
E ---------------------------------------------------------------------


E ----------------------------------------------------------12----------------------------------------------
B ----------10---------10---12--13--12--10-------10-----------10---12--13--12--10----10---------
G ---------------9--------------------------------12-----------------------------------------12----9------
D -----------------------------------------------------------------------------------------------------------
A -----------------------------------------------------------------------------------------------------------
E -----------------------------------------------------------------------------------------------------------


E ----------------------------------------------------------------------
B ---10---12--13--12--10-------------------------------------------
G -----------------------------9---------------------------------------
D ---------------------------------12---10---12---10---9---10-----
A ---------------------------------------------------------------------
E ---------------------------------------------------------------------

A me suona carino....Controllate però

SALUT :shock: :shock:

MessaggioInviato:
di mauz bitto
gli accordi per chi serve:

Codice: Seleziona tutto
Titolo: Re:Gli accordi di Erriquez
Post di: billo il 17 Giugno 2003, 20:55:59
..Un giorno ci ritroveremo tutti con le nostre chitarrine e faremo CASINOOOOOOOOOOOOOOOOO


UBRIACO CANTA AMORE


LA- SOL RE- MI- RE- MI- FA MI


LA-
È una notte senza luna

RE- MI7
ubriaco canta amore

LA-
alla fortuna

LA-
Senza freddo e senza pane

RE- MI7
ubriaco canta amore

LA-
alle persiane

SOL LA-
Seduto sull'asfalto che fuma

SOL LA-
sembra un tempo da Medioevo

SOL DO
qualcuno dice che è un pazzo

MI LA-
un altro dice che non è nessuno

SOL LA- SOL LA-
Per la gente nervosa in attesa del lieto fine

SOL DO
chi mangia solo terra e acqua

MI LA-
è un errore da digerire!


LA- SOL RE- MI- RE- MI- FA MI



È una notte senza luna
ubriaco canta amore
alla fortuna
Senza freddo e senza pane
ubriaco canta amore
alle persiane
Lui sa di avere ragione
sa di essere felice e sulla sua pelle nera
scrive un nome di vernice
Alla gente distratta in attesa del lieto fine
lui risponde con il vento
"Io sono il più contento"

(SI ALZA DI UN TONO)

SI- MI- FA# SI-
È una notte senza luna...............................alle persiane


la-
E' una notte senza luna......

rit....



billo "...solito chitarrista da spiaggia" ;D



chi è BILLO?

MessaggioInviato:
di noice
che bella sta canzone..

8)

Re: Tablatura ubriaco canta amore..bandabardò

MessaggioInviato:
di Taverna
Ciao, qualcuno mi può aiutare?? Sembrerà sciocco ma io non riesco a trovare il tempo! Vorrei un aiuto, se è possibiole sapere quante pennate bisogna fare.

Re: Tablatura ubriaco canta amore..bandabardò

MessaggioInviato:
di Taverna
Ciao, qualcuno mi può aiutare?? Sembrerà sciocco ma io non riesco a trovare il tempo! Vorrei un aiuto, se è possibiole sapere quante pennate bisogna fare.

Re: Tablatura ubriaco canta amore..bandabardò

MessaggioInviato:
di Il Giustiziere delle note
le pennate sono queste GSgsGSgs|GSgsGSgs|..... dove GS sono le pennate piene e gs le pennate stoppate. Per l'effetto stoppato in corrispondenza dei gs dovresti rilasciare le dita della mano sinistra sulle corde

Re: Accordi Tablatura intro ritmo ubriaco canta amore bandabardò

MessaggioInviato:
di Ph86
Ciao a tutti..
a distanza di molti anni dall'ultimo post riguardante le tabs di "Ubriaco canta amore"..qualcuno avrebbe a disposizione le tabs o qualche aiuto per il solo finale?

grazie a tutti!