Accordi tab ritmo intro arpeggio Lucio Battisti - Emozioni

Hai trovato gli accordi chords di una canzone ad orecchio e vorresti suggerirla? Oppure vuoi proporre la TAB per chitarra del tuo Riff preferito? il testo? Questo è il forum giusto! Anche per suggerimenti sul ritmo di una canzone. Ricordati di usare la funzione cerca...

Accordi tab ritmo intro arpeggio Lucio Battisti - Emozioni

Messaggiodi Esteban 19

Ho dato un'occhiata al canzoniere di Battisti e non ho trovato questa canzone

"Emozioni"...

Avete la tabs di questa canzone??

E' una canzone meravigliosa, non può non essere su CDS

Dai ragazzi diamoci da fare, buttiamo giu accordi e tab

Grazie


Che amarezza...!!!
Esteban 19
 
Messaggi: 637
Località: Caltanissetta


Accordi tab ritmo intro arpeggio Lucio Battisti - Emozioni

Messaggiodi wladdo75

Allora visto che manca dal canzoniere la metto direttamente li...

Eccoti il link: -------->

http://chitarradaspiaggia.com/forum/vie ... php?t=2949


Consiglio chitarra elettrica + Amplificatore

Ho suonato 2 anni al conservatorio... ma non mi hanno mai aperto!!
wladdo75
 
Messaggi: 5830
Località: TORINO

Accordi tab ritmo intro arpeggio Lucio Battisti - Emozioni

Messaggiodi syndrome

Codice: Seleziona tutto
[G]Seguir con gli occhi un airone sopra il [F#m7]fiume e poi [Em7]ritro[A7]varsi a vo[Dmaj7]lare
e sdra[G]iarsi felice sopra l'[F#m7]erba ad ascoltare [Em7]un sottile dispia[A]cere.
E di [G]notte passare con lo sguardo la col[F#m7]lina per scoprire
[Em7]dove il [A7]sole va a dor[Dmaj7]mire.
Doman[G]darsi perché quando cade la tristezza[F#m7] in fondo al [Bm]cuore
[Em7]come la neve non fa ru[A7]more
e gui[Bm]dare come un pazzo a fari spenti nella [A]notte per vedere
se [G]poi è tanto difficile mo[D]rire.
E [G]stringere le mani per fermare [F#m7]qualcosa [Bm7]che
[Em7]è dentro me ma [A4/7]nella mente tua non c'è...

[Em7]Capire tu non p[A]uoi
[Em7]tu chiamale se [A7]vuoi emo[D]zioni...[G][D]
[Em7]tu chiamale se [A7]vuoi emoz[Dmaj7]ioni.

Uscir nella brughiera di mattina dove non si vede a un passo
per ritrovar se stesso.
Parlar del più e del meno con un pescatore per ore ed ore
per non sentir che dentro qualcosa muore...
E ricoprir di terra una piantina verde sperando possa
nascere un giorno una rosa rossa.
{comment:(vocalizzato)}
E prendere a pugni un uomo solo perché è stato un po' scortese
sapendo che quel che brucia non son le offese
e chiudere gli occhi per fermare qualcosa che
è dentro me ma nella mente tua non c'è...

Capire tu non puoi
tu chiamale se vuoi emozioni...
tu chiamale se vuoi emozioni.


syndrome
 
Messaggi: 65

Accordi tab ritmo intro arpeggio Lucio Battisti - Emozioni

Messaggiodi Gab

Salve, sapreste anche l'arpeggio iniziale della canzone?
le tab voglio dire.. grazie in anticipo


entra nel magico mondo di Matyox!!!

THINK IN MATYOX STYLE!!!!!!!
Gab
 
Messaggi: 48

Accordi tab ritmo intro arpeggio Lucio Battisti - Emozioni

Messaggiodi mauz bitto

ecco l'intro
Codice: Seleziona tutto
INTRO

---0--2/3-2-0---------------------------- |
--------------3------0--------0--------0- |
--------------------0--------0--------0-- |
-------------------0--------0--------0--- | <- 2 Times
----------------------------------------- |
-----------------3--------2--------0----- |

----------------3---7-----2--------------|
---------------3-------------------------|
-----------------------------------------|
-----------------------------------------|
-----------------------------------------|
-0--2--0--2h3----------------------------|


mauz bitto
 
Messaggi: 3531
Località: Bitonto (Ba)

Accordi tab ritmo intro arpeggio Lucio Battisti - Emozioni

Messaggiodi Gab

Grandissimo! thanks.
ora ci provo vediamo che ne esce


entra nel magico mondo di Matyox!!!

THINK IN MATYOX STYLE!!!!!!!
Gab
 
Messaggi: 48

Re: LUCIO BATTISTI - EMOZIONI

Messaggiodi Gab

salve, scusate ma potrei avere qualche consiglio su come arpeggiare la canzone?


entra nel magico mondo di Matyox!!!

THINK IN MATYOX STYLE!!!!!!!
Gab
 
Messaggi: 48

Accordi tab ritmo intro arpeggio Lucio Battisti - Emozioni

Messaggiodi gamma8

ho visto qs video......FANTASTIC!!!!
ma l'arpeggio nn m sembra lui-------
m impegnero'-----


Xchè le canzoni non t tradiscono,anche Ki le fa può tradirt,ma le canzoni,quelle ke per te han voluto dire qlcs le trovi sempre lì,quando tu vuoi trovarle,intatte,nn importa se cambierà ki le ha cantate,delle canzoni,delle vs canzoni vi potete fidare
gamma8
 
Messaggi: 60
Località: Alba-CN-

Accordi tab ritmo intro arpeggio Lucio Battisti - Emozioni

Messaggiodi =Arma=

fantastico...qualcuno non riesce a procurarsi quella tab?


=Arma=
 
Messaggi: 364

Re: Lucio Battisti - Emozioni

Messaggiodi mauz bitto

la tab dell'intro equivale a quella che ho postato io qlke messaggio più su,
solo che lui lo diteggia sulla seconda corda invece che sulla prima:
Codice: Seleziona tutto
----------------------------------------- |
----7h8p9------------0--------0--------0- |
--9-------9-7-------0--------0--------0-- |
-------------------0--------0--------0--- | <- 2 Times
----------------------------------------- |
-----------------3--------2--------0----- |

|--------------|
parte differente


mauz bitto
 
Messaggi: 3531
Località: Bitonto (Ba)

Re: Lucio Battisti - Emozioni

Messaggiodi silvia2204

scusate.noncapisco una cosa. Perchè nella tab sulla sesta corda c'è scritto 2/3 ?


silvia2204
 
Messaggi: 24

Accordi tab ritmo intro arpeggio Lucio Battisti - Emozioni

Messaggiodi Guit'EmAll

Non è sulla sesta corda, ma sulla prima:

Codice: Seleziona tutto
INTRO

---0--2/3-2-0---------------------------- |
--------------3------0--------0--------0- |
--------------------0--------0--------0-- |
-------------------0--------0--------0--- | <- 2 Times
----------------------------------------- |
-----------------3--------2--------0----- |

----------------3---7-----2--------------|
---------------3-------------------------|
-----------------------------------------|
-----------------------------------------|
-----------------------------------------|
-0--2--0--2h3----------------------------|

E' un "Picked-Slide Ascendente":

Guit'EmAll ha scritto:
" Picked-Slide " (= " Shift Slide " ) : " Scivolamento Plettrato". (DA NON CONFONDERE CON "PICK-SLIDE"!). Si ottiene diteggiando un tasto con la mano sinistra, plettrando (o pizzicando) quella corda ottenendo una nota, e strusciando quello stesso dito lungo quella corda su uno o più tasti della chitarra, arrivando al tasto da raggiungere e, qui giunti, plettrando di nuovo la stessa corda, rinforzando la seconda nota.

Picked-slide ascendente (in questo caso "si sale" d'altezza perchè ci si sposta da sinistra verso destra lungo la tastiera della chitarra):

---------------------
---------------------
------5 / 7---------
---------------------
---------------------
---------------------



Dal topic -----> Come leggere una Tab + tecniche di Chitarra Solista.


Guit'EmAll
 
Messaggi: 10366
Località: VI PIACEREBBE SAPERLO, EH??? :D

Re: Lucio Battisti - Emozioni

Messaggiodi silvia2204

grazie Guit, come al solito spieghi tutto alla perfezione


silvia2204
 
Messaggi: 24

Re: Lucio Battisti - Emozioni

Messaggiodi =Arma=

mauz bitto ha scritto:la tab dell'intro equivale a quella che ho postato io qlke messaggio più su,
solo che lui lo diteggia sulla seconda corda invece che sulla prima:
Codice: Seleziona tutto
----------------------------------------- |
----7h8p9------------0--------0--------0- |
--9-------9-7-------0--------0--------0-- |
-------------------0--------0--------0--- | <- 2 Times
----------------------------------------- |
-----------------3--------2--------0----- |

|--------------|
parte differente


grazie questa è perfetta! bravissimo!
chiedo troppo se chiedo se hai anche la parte successiva? &;;


=Arma=
 
Messaggi: 364

Accordi tab ritmo intro arpeggio Lucio Battisti - Emozioni

Messaggiodi =Arma=

una sola cosa, penso hai sbagliato a scrivere, è 7h8p7 ma già la p sottintende che non può essere un 9 quindi è sicuramente un errore di battitura


=Arma=
 
Messaggi: 364

Prossimo


Torna a Accordi TAB Riff testo chords - Studiare canzoni


Chi c’è in linea

Visitano il forum: Nessuno e 8 ospiti