Accordi tab arpeggio Ligabue Il giorno di dolore che uno ha

Hai trovato gli accordi chords di una canzone ad orecchio e vorresti suggerirla? Oppure vuoi proporre la TAB per chitarra del tuo Riff preferito? il testo? Questo è il forum giusto! Anche per suggerimenti sul ritmo di una canzone. Ricordati di usare la funzione cerca...

Accordi tab arpeggio Ligabue Il giorno di dolore che uno ha

Messaggiodi mauisons82



ciao tutti...quancuno puo' postare la tab. di Il giono di dolore che uno ha di Ligabue e relativi accordi?
grazie a tutti


mauisons82
 
Messaggi: 7
Località: BRESCIA


Accordi riff intro Ligabue Il giorno di dolore che uno ha

Messaggiodi mauisons82

IL GIORNO DI DOLORE CHE UNO HA

Riff principale (usato nell'intro e sotto alcune delle strofe):

(Chitarra acustica leggermente distorta)

(G) (Bm) (C7+) (Am) Quan-do
e:-------------2-----------------------------------
B:-0--1--0-----1---0-1-0---3--------1---1---1---3--
G:----------0--3---------0-------------------------
D:-------------3-------------0----------------0----
A:-------------2------------------0---2---3--------
E:-------------2-----------------------------------
^
|
lasciar suonare il Bm

G
Quando tutte le parole
Bm
sai che non ti servon piu'
C7+
quando sudi il tuo coraggio
Am
per non startene laggiu'.
G
Quando tiri in mezzo Dio
Bm
o il destino o chissa' che
C7+
che nessuno te lo spiega
Am
perche' sia successo a te.
D
Quando tira un po' di vento
C
che ci si rialza un po'
G
e la vita e' un po' piu' forte
D
del tuo dirle 'grazie no'
C9
quando sembra tutto fermo
D9
la tua ruota girera'
C9 D G
sopra il giorno di dolore che uno ha.

Tu tu tu tu tu tu...


D C Am

G
Quando indietro non si torna
Bm
quando l'hai capito che
C7+
che la vita non e' giusta
Am
come la vorresti te
G
quando farsi una ragione
Bm
vorra' dire vivere
C7+
te l'han detto tutti quanti
Am
che per loro e' facile
D
quando batte un po' di sole
C
dove ci contavi un po'
G
e la vita e' un po' piu' forte
D
del tuo dirle 'ancora no'
C9
quando la ferita brucia
D9
la tua pelle si fara'
C9 D G
Sopra il giorno di dolore che uno ha.
D C
Tu tu tu tu tu tu...
Am G D C
Tu tu tu tu tu tu...
Am7
Tu tu tu tu tu tu...

(ogni linea verticale delimita una battuta)
Solo: | D9 | C9 | G G7+ | G G7+| C9 | D | D | C

D G
Quando il cuore senza un pezzo
Bm
il suo ritmo prendera'
C9
quando l'aria che fa il giro
Am
i tuoi polmoni becchera'
G
quando questa ... intorno
Bm
sempre ... restera'
C
riconoscerai l'odore
Am
perche' questa e' la realta'
D
quando la tua sveglia suona
C
e tu ti chiederai che or'e'
G G7+
che la vita e' sempre forte
D
molto piu' che facile
C9
quando sposti appena il piede
D D D D
li' il tuo tempo crescera'
C D G
Sopra il giorno di dolore che uno ha.
D C Am
Tu tu tu tu tu tu...
G D C
Tu tu tu tu tu tu...
Am7
Tu tu tu tu tu tu...

Solo: G D C Am7 (x4)

C9 G



Ragazzi scusate per l'errore...questi dovrebbero essere gli accordi nella versione classica della canzone....
MI CHIEDEVO SE QUALCUNO è RIUSCITO A TROVARE LA TABS DELLA VERSIONE GIRO D'ITALIA TOUR CON I NUOVI ARRANGIAMENTI
GRAZIE A TUTTI DI NUOVO E SCUSATE PER LA RETTIFICA...


mauisons82
 
Messaggi: 7
Località: BRESCIA

Messaggiodi mauisons82

Riff principale (usato nell'intro e sotto alcune delle strofe):
(Chitarra acustica leggermente distorta)
G Bm C Am G4/B C D4sus9
e:-------------x---------------------------------------|
B:-------------3----------------------1---1---1---3----|
G:-4--5--4-----4---4-5-4---7---------------------------|
D:----------5--4---------5---5-------------------------|
A:-------------2----------------5\0-0---2---3---5------|
E:-------------x---------------------------------------|
^
|
lasciar suonare il Bm
(il Bm secondo me ci sta bene solo qui, nella strofa uso sempre il D)

[A me non pare, cmq... fate voi]

G4/B:x20010 non so se il nome dell'accordo e' proprio giusto, comunque
D4sus9: x54030 anche questo non so se e' proprio giusto
G
Quando tutte le parole
D
sai che non ti servon piu'
C
quando sudi il tuo coraggio
Am G4/B C D4sus9
per non startene laggiu'.

(questo per suonarlo con una sola chitarra, senza il riff - l'ho visto
fare
una volta al Liga - ma anche se lo fai sempre non ci sta male)

G
Quando tiri in mezzo Dio
D
o il destino o chissa' che
C
che nessuno te lo spiega
Am G4/B C D4sus9
perche' sia successo a te.
D
Quando tira un po' di vento
C
che ci si rialza un po'
G
e la vita e' un po' piu' forte

(dopo la prima strofa, con due chitarre facci questo)

e -3-----3-2-----2-3-----3-2--------|
B ---3-------3-------3-------3------|
G -----0-------0-------0-------0----|

D
del tuo dirle 'grazie no'

(qui io faccio cosi': Re con mezzo barré sul secondo e col passo da
xx0232 a
xx0432 a xx0532
e torno su xx0232)

C
quando sembra tutto fermo
(qui per seguire la chitarra ci vorrebbe un riff del genere)

D ----------------0---------|
A --0--2--3----3-----0------|
E --------------------------|

(per tenere l'accordo io faccio un passaggio veloce sul Do, passando da x02010 a x22010
x32010. Sul re invece me ne frego, tanto ci viene da solo, all'incirca)
D
la tua ruota girera'
C D G
sopra il giorno di dolore che uno ha.
Tu tu tu tu tu tu...

D C Am
G
Quando indietro non si torna
D
quando l'hai capito che
C
che la vita non e' giusta
Am G4/B C D4sus9
come la vorresti te
G
quando farsi una ragione
D
vorra' dire vivere
C
te l'han detto tutti quanti
Am G4/B C D4sus9
che per loro e' facile
D
quando batte un po' di sole
C
dove ci contavi un po'
G
e la vita e' un po' piu' forte
D
del tuo dirle 'ancora no'
C
quando la ferita brucia
D
la tua pelle si fara'
C D G
Sopra il giorno di dolore che uno ha.
D C
Tu tu tu tu tu tu...
Am G D C
Tu tu tu tu tu tu...
Am7
Tu tu tu tu tu tu...
(ogni linea verticale delimita una battuta)
Solo: | D9 | C9 | G G7+ | G G7+| C9 | D | D | C

E||----------------0-------|-------------------------------|
B||-----------0---------0--|--1-0---0----------------------|
G||------------------------|------2---2-0---0--------------|
D||--------0---------------|--------------2---2-0----------|
A||--0--2------------------|----------------------3----2-0-|
E||------------------------|-------------------------------|

---------------------------|-------------------------|
---------------------------|-------------------------|
----------0---0-----0--2-0-|------0---2--------0--2--|
--0---2---------0-2--------|--2------------0-2-------|
---------------------------|-------------------------|
---------------------------|-------------------------|

-----3-------3-------3----|-----2--------5--------5--|
--0-------0-------0-----0-|----------0--------0------|
--------------------------|--------------------------|
--------------------------|--------------------------|
--------------------------|--------------------------|
--------------------------|--------------------------|

--8----------------------------|-----------------------------|
-----8--6-6-4---6---4-5--------|-----------------------------|
--------------5---5-----5-3-0--|--0-2--2--2-0-2--2--2-0-2--2-|
-------------------------------|-----------------------------|
-------------------------------|-----------------------------|
-------------------------------|-----------------------------|

----------------3--5--7--|------------------------|---------------3--5--7--|
--0--------0-------------|----------0-------------|----------0-------------|
-----0--2----------------|--------------0-2--0----|----0--2----------------|
-------------------------|----5--7----------------|------------------------|
-------------------------|------------------------|------------------------|
-------------------------|------------------------|------------------------|

-------5--7----------|---------------------5--|----5------------0-3--|
----8----------------|----------0-----8-------|---------------3------|
---------------------|-------------7----------|----------------------|
---------------------|----5--7----------------|----------------------|
---------------------|------------------------|----------------------|
---------------------|------------------------|----------------------|

--7----5-5-3-0-5-0-3----------|----------------------|------0---3---5-------||
--8---------------------------|----------------------|--3-------------------||
----------------------2-0-----|----------2-----------|----------------------||
------------------------------|------2-------2-------|----------------------||
--------------------------3-2-|--0-------------------|----------------------||
------------------------------|----------------------|----------------------||

G
Quando il cuore senza un pezzo
D
il suo ritmo prendera'
C
quando l'aria che fa il giro
Am G4/B C D4sus9
i tuoi polmoni becchera'
G
quando questa ... intorno
D
sempre ... restera'
C
riconoscerai l'odore
Am G4/B C D4sus9
perche' questa e' la realta'
D
quando la tua sveglia suona
C
e tu ti chiederai che or'e'

G
che la vita e' sempre forte
D
molto piu' che facile
C
quando sposti appena il piede
D
li' il tuo tempo crescera'
C D G
Sopra il giorno di dolore che uno ha.
D C Am
Tu tu tu tu tu tu...
G D C
Tu tu tu tu tu tu...
Am7
Tu tu tu tu tu tu...
Solo: G D C Am7 (x4)
C G

[Solo]
[grazie a Francesco D'Offizi]

E||------------------------|-----------------------------------|
B||------------------------|-----------------------------------|
G||----------------9-------|-----------------------------------|
D||-----------9---------9--|--10-9-7-9-7-----------------------|
A||--------5---------------|-------------10-7-10-7-------------|
E||--5--7------------------|-----------------------10-8----7-5-|

---------------------------------|----------------------------|
---------------------------------|----------------------------|
---------------------------------|----------------------------|
----------------------------7----|-----------7-------------7--|
-------7---10---10----7-10----10-|--7---10-----------7-10-----|
--10---------------10------------|----------------10----------|

--------------------------|----------------------------|
-----8-------8-------8----|-----7--------10--------10--|
--------------------------|----------------------------|
--9-------9-------9-----9-|----------9---------9-------|
--------------------------|----------------------------|
--------------------------|----------------------------|

--8-----------------------------------|--------------------------------|
-----8--------------------------------|--------------------------------|
--------10-10-8----10----8-9----------|--------------------------------|
----------------10----10-----10-8-----|-----7--7--7----7--7--7----7--7-|
----------------------------------10--|--10---------10---------10------|
--------------------------------------|--------------------------------|

----------------------------|---------------------------|
-----------------8--10--12--|---------------------------|
----------------------------|---------------------------|
--9------7--9---------------|--------7--9------7--------|
-----10---------------------|----10---------10----10----|
----------------------------|---------------------------|

---------------------------|-----------------------|--------------------------|
----------------8--10--12--|----8--10--12----------|-----------------8----10--|
---------------------------|-----------------------|--------------7-----------|
--------7--9---------------|-----------------------|--------7--9--------------|
----10---------------------|-----------------------|----10--------------------|
---------------------------|-----------------------|--------------------------|

-----------------------|--7----5-5-3-0-5-0-3----------|----------------------|
----10--------------8--|--8---------------------------|----------------------|
----------------7-9----|----------------------2-0-----|----------2-----------|
-----------------------|------------------------------|------2-------2-------|
-----------------------|--------------------------3-2-|--0-------------------|
-----------------------|------------------------------|----------------------|
G
------0---3---5-------|--3----------------||
--3-------------------|--3----------------||
----------------------|--4----------------||
----------------------|--5----------------||
----------------------|--5----------------||
----------------------|--3----------------||

CREDETE POSSA ESSARE QUESTA?


mauisons82
 
Messaggi: 7
Località: BRESCIA

Messaggiodi hugoboss

no a me sembra la stessa... o cmq nn credo ke sia quella live del giro d'italia.. mi dispiace anke io vorrei imparare a farla xkè è una delle mie canzoni preferite... vi prego aiutateciii


hugoboss
 
Messaggi: 95

Messaggiodi dolciste

:-DD


Nella vita non contano i respiri, ma i momenti che ti hanno tolto il respiro. (X Tritologol è di Carlin)

Idee articoli regalo per chitarristi - A forma di chitarra!
dolciste
 
Messaggi: 2023

mia canzone---

Messaggiodi rocknroll star

ciao a tutti finalmente sono riuscito a inserire la canzone che ho registrato...
se vi va dateci un occhio !!!
ciao grazie

k-rock
:x


rocknroll star
 
Messaggi: 22
Località: modena

Re: mia canzone---

Messaggiodi Jurimbert

un aiuto sul ritmo?
:?:


Jurimbert
 
Messaggi: 144
Località: Cervinia

Re: mia canzone---

Messaggiodi AlbaScura

ma gli accordi sono quelli postati? e la pennata? Grazie :shock:


AlbaScura
 
Messaggi: 1115
Località: Agrigento

Messaggiodi rocknroll star

guarda grazie ma diciamo che ho tentao di riarrangiare un po il tutto !!!
si gli accordi sono gli stessi con l aggiunta della settima per rendere un effetto ancora piu melodico !!


rocknroll star
 
Messaggi: 22
Località: modena

Messaggiodi andrechallant

scusa ma non posso lasciare il link, potrebbe sembrare spam e non e' giusto nei confronti di tutti... pero' se vuoi puoi metterlo come link nella firma (come da regolamento :wink: )


''Parlare di musica è come ballare di architettura.'' [F.Zappa]

Liuteria costruire da soli la chitarra, tutte le discussioni rilevanti
andrechallant
 
Messaggi: 2004
Località: Torino

Messaggiodi rocknroll star

ok cambio effettuato !
:x


rocknroll star
 
Messaggi: 22
Località: modena

Re: Ligabue - Il giorno di dolore che uno ha

Messaggiodi sergitter

cm si piò fare l'arpeggio che si vede nel filmato del campovolo??


sergitter
 
Messaggi: 10

Re: Ligabue - Il giorno di dolore che uno ha

Messaggiodi hugoboss

qualcuno la sa fare nella versione acustica? come la esegue nel concerto di campovolo?


hugoboss
 
Messaggi: 95

Re: Ligabue - Il giorno di dolore che uno ha

Messaggiodi Guit'EmAll

:-W :-W :-W :-W :-W


Guit'EmAll
 
Messaggi: 10366
Località: VI PIACEREBBE SAPERLO, EH??? :D

Re: Ligabue - Il giorno di dolore che uno ha

Messaggiodi diomadre

...a Campovolo:

che voce strana che ha quì, non sembra neanche lui all'inizio!


Mandi
diomadre
 
Messaggi: 226
Località: Udine

Prossimo


Torna a Accordi TAB Riff testo chords - Studiare canzoni


Chi c’è in linea

Visitano il forum: Nessuno e 23 ospiti