Accordi Tab Riff Solo Queen - Bohemian rhapsody

Hai trovato gli accordi chords di una canzone ad orecchio e vorresti suggerirla? Oppure vuoi proporre la TAB per chitarra del tuo Riff preferito? il testo? Questo è il forum giusto! Anche per suggerimenti sul ritmo di una canzone. Ricordati di usare la funzione cerca...

Accordi Tab Riff Solo Queen - Bohemian rhapsody

Messaggiodi mamo989

E' abbastanza fattibile oltre ogni problema...

io sono riuscito a farla, almeno parlando per il pezzo iniziale.

Sto provando a farla con un mio amico che suona il piano...

vedremo che ne esce fuori!

ecco la tab

Codice: Seleziona tutto
-|-----------------8--8-10-11-8-10-11-13-----13-15-16-18-20---16-15h16p15-----
-|------------11---8----------------------13------------------------------18--
-|-10b12-10-8-----------------------------------------------------------------
-|----------------------------------------------------------------------------
-|----------------------------------------------------------------------------
-|----------------------------------------------------------------------------
                                                                             

-15----------------------------------------------------15h16h18---------------
----18-16-16h18p16-15-15h16p15----------------15h16h18------------------------
-------------------------------17-15----15h17-------------------15h17---------
------------------------------------------------------------------------------
------------------------------------------------------------------------------
------------------------------------------------------------------------------
                                                                             

----------15h16h18-20---------------------------------------------------------
-15h16h18----------------15h16----15h16----15h16-18-----------18--------------
-------------------------------17-------17--------------------------18-18-----
-----------------------------------------------------15-16-18----18-----------
------------------------------------------------------------------------------
------------------------------------------------------------------------------
                                                                             

------|-----------------------------------------------------------------------
------|-----------------------------------------------------------------------
------|-----------------------------------------------------------------------
------|-----------------------------------------------------------------------
-16\12|-----------------------------------------------------------------------
------|-----------------------------------------------------------------------


mamo989
 
Messaggi: 435


Accordi Tab Riff Solo Queen - Bohemian rhapsody

Messaggiodi Dav-Jani

assolo :)


Dav-Jani
 
Messaggi: 65
Località: Roma

Accordi Tab Riff Solo Queen - Bohemian rhapsody

Messaggiodi noice

Codice: Seleziona tutto
Chords:

A       Ao      Ab      Abo     Abm     Ab(Eb bass)  B       Bb       
x02220  xx1212  xx6544  xx0101  xx6444  xx1114       224442  113331

Bb6     Bb7     Bb11    Bb(Dbass)  B+      Bbm     Bbm(DbBass)  Bm
xx3333  113131  x11111  xx0331     xx5443  113321  x43321       x24432

C7      C7-9    C(Gbass)  Cm      Cm7     C#o     D       Db       
x32310  x32323  332010    xx1013  xx1313  xx2323  xx0232  xx3121

Db(AbBass)  Db(CbBass)  E       Eb      Eb(BbBass)  Eb(Gbass)     
4x3121      x2x121      022100  xx1343  x11343      xx5343

Ebo     F       F7      F(Abass)  Fm(AbBass)  F(Cbass)  Fm     
xx1212  xx3211  131211  x03211    4x3111      x33211    xx3111

Fm7     F#o     G       G7      Gb      Gb7     Gm      Gm7     Gm(Dbass)   
131111  xx4545  320003  320001  244322  xx4320  xx0555  313333  x55333

Intro:
(slowly)
Bb6                     C7      Bb6  C7
Is this the real life?  Is this just fantasy? 

  F7        Cm7    F7          Bb        Cm7   Bb
Caught in a land - slide, no escape from re - ality.

Gm                   Bb7                 Eb
Open your eyes, look up to the skies and see.

Cm                    F7
I'm just a poor boy,   I need no sympathy, because I'm

B    Bb    A    Bb  B      Bb    A      Bb
easy come, easy go, little high, little low.

Eb         Bb(Dbass)  C#o            F(Cbass)  F           Bb
Anyway the wind blows doesn't really matter to me, to_____ me.

Verse:

Bb             Gm                  Cm
Mama_____ just killed a man, put a gun against his head,

                            F
pulled my trigger, now he's dead. 

Bb                 Gm              Cm7
Mama,____ life had just begun, but now I've gone and

B+        Eb(BbBass)   F(Abass)  Fm(AbBass)
thrown it all      a - way. 

Eb    Bb(Dbass)  Cm         Fm
Mama, ooh__________  didn't mean to make you cry. 

   Bb                             Eb               Bb(Dbass)    Cm
If I'm not back again this time tomorrow, car - ry on, car - ry on

      Abm            Eb          Ab   Eb   Ebo   Fm7   Bb 
as if nothing really matters.____

Verse 2:

Too late,_____ my time has come, sends shivers down my spine,
body's aching all the time.
Goodbye, everybody, I've got to go, gotta leave you all
behind and face the truth.
Mama, ooh_____  I don't want to die,

  Bb                                      Eb 
I sometimes wish I'd never been born at all.

Bb(Dbass)  Cm   Fm   Bb7   Eb   Gm(Dbass)  Cm   Fm   Db   Db(CbBass)   Bbm

Verse 3:
(faster)
A  D A     Ao        A           D       A    Ao
   I see a lit - tle sil - hou - et - to of a man. 

A           D      A           D      A        Ao     A     D     A
Scar - a - mouche, Scar - a - mouche, will you do the Fan - dan - go?

Db(AbBass)      Ab        C(Gbass)   E           A
Thunderbolt and lightning very, very fright'ning me.

No Chords
Gallileo, Gallileo, Gallileo, Figaro, Magnifico.__________

B   Bb     A    Bb      B    Bb      A     Bb
I'm just a poor boy and no - bod - y loves me. 

Ab   Eb     Ebo  Eb  Ab     Eb   Ebo       Eb
He's just a poor boy from a poor fam - i - ly.

Ab            Eb(Gbass)      F                 Bb
Spare him his life from this mon - stros - i - ty.

Ab  Eb(Gbass)  F#o  Fm7   

B    Bb    A    Bb  B        Bb     A    Bb    Eb
Easy come, easy go, will you let me go?  Bis - mil - lah!

    Bb                    Eb
No, we will not let you go.  Bismillah!

Bb                    Eb             Bb
We will not let you go.  Bismillah!  We will not let you go.


Will not let you go.  Will not let you go.

Gb7
Ahhhhhhhhh________________________________

Bm  A   D   Db  Gb  Bb  Eb
No, no, no, no, no, no, no.

Eb               Bb        Eb        Ab        D          Gm       Bb
Mama mia, let me go.  Be - el - ze - bub has a devil put aside for me,


for me,______ for me.______

Eb  F7

Bb7       Eb(BbBass)    Bb           Eb         Bb          Db
   So you think you can stone me and spit in my eye.______

Bb7       Eb(BbBass)    Bb          Eb          Ab
   So you think you can love me and leave me to die.______

Fm         Bb        Fm                       Bb   
Oh,______  baby,______  can't do this to me,  baby.______

Fm7            Bb   Fm7            Bb          Eb           Bb7
Just gotta get out, just gotta get right outta here.______ 

(slowly, a tempo)
Eb  Bb(Dbass)  Cm  G  Cm  G7  Cm  Bb7  Eb  D  Gm  Ab  Eb

Cm            Gm       Cm         Gm
Nothing really matters, anyone can see.

Cm            Abm       Bb11                     Eb         Ab(EbBass)
Nothing really matters, nothing really matters to me.______

Eb  Ebo  Bb(Dbass)  Bbm(DbBass)  C7  C7-9  C7  F 

Bb    F       Abo  Gm7
Any - way the wind blows.

End on F


"i plettri sono fatti per essere persi, dimenticati, fregati agli amici, scambiati come fiches del casinò.. lavati con i jeans.." [cit. Mario]

Guida ai plettri per chitarra
noice
 
Messaggi: 1718
Località: Ischia

Messaggiodi jirachi94

Preferisco questa


di quelli che han vissuto con la coscienza pura / l'inferno esiste solo per chi ne ha paura

Scrivere Tab Chitarra On-line
jirachi94
 
Messaggi: 988
Località: tencarola di selvazzano - Padova

Messaggiodi Rustuzzz

Bellisssssssima interpretazione :o


i don´t like the disco
and i don´t like the house
cos´ i was born to rock
i´m born to pogo!
i'm the KING OF THE POGO!!!
Rustuzzz
 
Messaggi: 186
Località: Messina

Accordi Tab Riff Solo Queen - Bohemian rhapsody

Messaggiodi daniele_3000

qualcuno ha la tab di quella fantastica interpretazione con la chitarra di classica?


daniele_3000
 
Messaggi: 395
Località: L'ISOLA NON TROVATA

Accordi Tab Riff Solo Queen - Bohemian rhapsody

Messaggiodi Wild Thing

è fuori argomento xo.... madonna che idolo!


"If the doors of perception were cleansed, everything would appear to man as it truly is, infinite"
Wild Thing
 
Messaggi: 447
Località: Universo< Mondo< Europa< Italia< Emilia-Romagna< Castiglione dei Pepoli (BO)

Re: Queen - Bohemian rhapsody

Messaggiodi mamo989

Ragazzi, qualcuno è a conscenza della tab che riporta la parte finale dell'assolo, più precisamente intendo quello che
Brian MAy effettua dopo la parte di canzone che fa "for me, for me, for meee..."?
Praticamente tutto l'outro della canzone...
Grazie anticipatamente


"2007" - Squier Bullet Strato by Fender.
----------------------------------------------------
mamo989
 
Messaggi: 435

Accordi Tab Riff Solo Queen - Bohemian rhapsody

Messaggiodi SoundOfDreams

questo?
Codice: Seleziona tutto
                           Bohemian Rhapsody (solo)                             

Trilha 1
                                                                   
E||---------------------|----------------------|------------------|
B||---------------------|----9~---------6--9r--|------------------|
G||------------8r-------|--6-------------------|------------------|
D||--6-6~---------------|----------------------|------------------|
A||---------------------|----------------------|------------------|
E||---------------------|----------------------|------------------|

------------------------------|--------------13--14--16--|
--11~---13--14--11~---13--14--|--14~---------------------|
------------------------------|--------------------------|
------------------------------|--------------------------|
------------------------------|--------------------------|
------------------------------|--------------------------|
 
--16b---16r-14--13h14p13----13----------|----------------------------------|
-------------------------16----16-14-13h|--14p13----13---------------------|
----------------------------------------|--------15----15-13h15p13~--------|
----------------------------------------|----------------------------------|
----------------------------------------|----------------------------------|
----------------------------------------|----------------------------------|

----------------------13--14--16~-|-------------------13-14-16~16~-----|
----------13--14--16--------------|----------13-14-16------------------|
--13--15--------------------------|----13-15---------------------------|
----------------------------------|------------------------------------|
----------------------------------|------------------------------------|
----------------------------------|------------------------------------|

------------------------|------------------------------|
----------13--14--11~---|--13--14--11~---13--14--14~---|
------------------------|------------------------------|
------------------------|------------------------------|
------------------------|------------------------------|
------------------------|------------------------------|

------------------------|--13~-------------------------|
------------------------|------------------14-14-14-14/|
--------10--12--13~-----|----------13~-----------------|
------------------------|------------------------------|
------------------------|------------------------------|
------------------------|------------------------------|

-------------------------||
----7--------------------||
-------7p6p4-------------||
-------------7-----------||
-------------------------||
-------------------------||



SoundOfDreams
 
Messaggi: 12638
Località: Villa Literno (Caserta)

Re:

Messaggiodi Guit'EmAll

&^^%


Guit'EmAll
 
Messaggi: 10366
Località: VI PIACEREBBE SAPERLO, EH??? :D

Re: Queen - Bohemian rhapsody

Messaggiodi mamo989

PEr intenderci la parte di assolo che c'è dopo il doppio slide...in questo video:




"2007" - Squier Bullet Strato by Fender.
----------------------------------------------------
mamo989
 
Messaggi: 435

Re: Queen - Bohemian rhapsody

Messaggiodi mamo989

Quindi?
Nessuno sa aiutarmi?
Ad orecchio riesco a fare la prima parte di questa frazione di assolo, ma poi c'è tutta la scala che la finisce che non riesco a trovare...


"2007" - Squier Bullet Strato by Fender.
----------------------------------------------------
mamo989
 
Messaggi: 435

Re: Queen - Bohemian rhapsody

Messaggiodi mauz bitto

mamo lo sai che
Non è consentito evidenziare un proprio intervento (rispondendo a se stessi) senza aggiungere nulla a quanto detto in precedenza solo per tenere in alto un topic che ci interessa particolarmente(Bumping);

ti sono state proposte delle tab, sia da sound che da guit; le hai guardate? hai visto
se la parte che richiedi non sia all'interno di quelle tab?


mauz bitto
 
Messaggi: 3531
Località: Bitonto (Ba)

Re: Queen - Bohemian rhapsody

Messaggiodi mamo989

Chiedo scusa innanzitutto per aver "uppato"il topic...pero praticamente mi servirebbe quella parte di chitarra che non riesco a trovare, forse perche non definita come vero e proprio assolo della canzone, infatti si trova soltanto la parte iniziale...
Ad ogni modo ancora scusa, ma nelle tab che mi sono state riportate non trovo il pezzo a cui sono interessato
PEACE 8_)


"2007" - Squier Bullet Strato by Fender.
----------------------------------------------------
mamo989
 
Messaggi: 435

Re: Queen - Bohemian rhapsody

Messaggiodi andrechallant

non ho proprio capito quale parte ti serve, ma sul pc avevo questa versione.. fammi sapere se c'e' quella parte! &^^%

Codice: Seleziona tutto
                       Bohemian Rhapsody
            by Queen
Transcribed by: And Aledort

guitar tacet(chords played by piano)


N.C.
Is this real life Is the just fantasy?

Caught in a landslide, no escape from reality.

Gm
Open your eyes
     Bb                    Eb
Look up to the skies and see
Cm(7)                 F
I'm just a poor boy, I need no sympathy
B    Bb     A   Bb   B     Bb    A      Bb
easy come, eays go, little high, little low                     (bass enters)
Eb             Bb/D        C#dim            F7/C      F7/Eb  Bb
Any way the wind blows, doesn't realy matter to me     to me.

Bb                 Gm
Mama   just killed a man
       Cm                              Cm7                F
put a gun against his head, pulled my trigger, now he's dead
Bb               Gm              Cm               G+5/B   Eb/Bb    Adim
Mama  life had just begun, but now I've gone and thrown it all away
Eb   Bb/D           Fm        C/E Ab/Eb Ddim    Bb          Bb6   Bb7
Mama Oooo  didn't mean to make you cry, if I'm not back again this time
     Eb
tomarrow,
      Bb/D    Cm             Abm          Eb       Ab/Eb  Eb  Cdim Bb7sus4b9 Bb
Carry on, carry on as if nothing really matters.
                       Gm
Too late, my time has come
      Cm                    Cm7                      F
Sent shivers down my spine, body's achin' all the time,
Bb                      Gm
Goodbye everybody, I've got to go,
        Cm              G+5/B     Eb/Bb  Adim    Abmaj7   Eb/G
Gotta leave you all behind and face the truth.
Eb    Bb/D Cm  Fm       C/E Ab/Eb Ddim  Bb          Bb6          Bb7
Mama Ooo     I don't want to die, I sometimes wish I'd never been born at all.

(guitar solo)

--------------------------------------------------------
----------------------------11vvvvv---8--11>(12)vvvvvv--
------------10>(12)==>10>8------------------------------
--8vvvvvv-----------------------------------------------
--------------------------------------------------------
--------------------------------------------------------


---------------------------------------------------13-15-16-18-18>(20)vvvv----
--13vvvv--15-16-13vvv--15--16--16>(18)vvvvvv>16-13----------------------------
------------------------------------------------------------------------------
------------------------------------------------------------------------------
------------------------------------------------------------------------------
------------------------------------------------------------------------------


---18\16-16--15--18---15>16>15-----15-----------------------------------------
--------------------------------18-----18--16--15--16--15>16>15----15---------
----------------------------------------------------------------17----17--15--
------------------------------------------------------------------------------
------------------------------------------------------------------------------
------------------------------------------------------------------------------


--------------------------15--16--18vvvv(18)\-------------------15-16-18--20vv-
-------------15--16--18--------------------------------15-16-18----------------
--15---17---------------------------------------15--17-------------------------
-------------------------------------------------------------------------------
-------------------------------------------------------------------------------
-------------------------------------------------------------------------------

---------------------------------------------------------------------------
--15--16--13vvvv---15--16--13vvv--15--16--16>(18)vvvvvv--------------------
----------------------------------------------------------10--12--12>(13)--
---------------------------------------------------------------------------
---------------------------------------------------------------------------
---------------------------------------------------------------------------


---13-----------------------------------------------------------
------------------14---14-14-14-14vvvv-14\7---------------------
------13vvvvvvv--------------------------------6--6vvvvv--------
------------------------------------------------------------7---
----------------------------------------------------------------
----------------------------------------------------------------

D/A  A Adim     A        D/A   A     Adim
I  see  a little  silhouetto  of  a  man
A     D/A  A    D/A  A         Adim      A  D/A  A
Scarmouch  Scarmouch  will  you  do  the  fandango?
C#/G#    G#       C#/G#   G#      C/G         E7          A
Thunder  bolts  and  lightening  very  very  frightening  me
                          N.C.
Galileo  Galileo Galileo Galileofigaro Mangnifico oh oh oh
B    Bb        A    Bb   B    Bb   A    Bb
I'm  just  a  poor  boy  nobody  loves  me
Ab/Eb   Eb     Ebdim Eb    Ab/Eb   Eb   Ebdim   Eb
He's  just  a  poor  boy,  from  a  poor  family
Ab                  Eb/G            F7       Bb
spare  him  his  life  from  this  monstrosity

Ab/Eb  Eb  Cdim  Bb7sus4b9

B      Bb     A    Bb   B            Bb         Bbdim
Easy  come  easy  go  will  you  let  me  go?
Bb5  Eb Bb5 Eb Bbsus4  Bb     Bbsus4   Bb
Bismillah   NO,  we  will  not  let  you  go

Let  him  go
Bb  Eb Bb           Bbsus4  Bb Bbsus4 Bb
Bismillah  we  will  not  let  you  go      Let  him  go
Bb  Eb Bb           Bbsus4  Bb Bbsus4 Bb
bismillah  we  will  not  let  you  go      Let  me   go
Bbsus4 Bb Bbsus4 Bb                     Bbsus4 Bb Bbsus4 Bb
will  not  let  you  go   let  me  go   will  not  let  you  go

let  me  go oh  oh  oh  oh oh
   A5   D   Db  Gb Bb5 Eb5                       Eb Ab Eb N.C.  Bb
no  no  no  no  no  no  no  Oh mamamia mamamia  mamamia  let  me  go
  Eb    Ab        D7             Gm         Bb5
Beelzebub  has  a  devil  put  aside  for  me   for  me  for me



----------------------------------------------------
----------------------------------------------------
----------------------------------------------------
----------------------------------------------------
-------------3---5---6---6-----------3-----------6--
--3---4---6----------------3---4---6----6vvvvvv-----


--------------------------------------------------------------------
--------------------------------------------------------------------
-------------------------------------------------------------8--8---
---------------------------------------------------8---------8--8---
-------------3---5---6---8-----------5-------------8---------6--6---
--3---4---6----------------5---6---8----6----6-----6----------------


--------------------------------------------------------------------
--------------------------------------------------------------------
----------------------------------------6vvvvvvv0-------------------
--8------8\3/8vvvv---6---8--6--------------------------8--------8\--
--8-----------------------------8----4-----------------8------------
--6----------------------------------------------------6---------0--


-----------------------------------------------------------------------------
--------------------------4----3-----------------3---------------------------
--------------------------5----3-----------------3---------------------------
---3----------------------6----5----3------------3--3>5---3------------------
---1------1/6--6--6--6>0--6----5----3------------1-----------5>3----------3--
--------------------------4----3----1-------1>0--------------------1---------


-----------------------------------------------------------------
---3---3---------------------------------------------------------
---3---3---------------------------------------3-------------3---
---3---3-----------3-----5>3-------------------3-------------3---
---1---1---3--3/5-------------5\---------------1-------------1---
-----------------------------------1-----1>0---------1-----------


---------------------------------------------------------
---------------------------------------------------------
---------------------------------------------------------
---------------------------------------------------------
--6---------------3---5---6---6-------------3------------
-----3---4----6-------------------3---4---6----6vvvvvv---


----------------------------------------------------------------------------
----------------------------------------------------------------------------
-----------------------------------------------------------------------5vvv-
------------------------------------------------------6---8vvv---6--8-------
--6------------3--5--6---8-------------5---7---8---9------------------------
-----3---4---6--------------5---6---8---------------------------------------


-----------------------------------------------------
-----------------------------------------------------
------------5----6--------------------6----6--8--9---
---8vvvvv--------------------6---8--9----9-----------
---------------------6>7--9--------------------------
-----------------------------------------------------


----------------------------------------------
----------------------------------------------
-------------------------------------3vvvvv---
------------------3--4--4>3---4---6-----------
-------3---4---6------------------------------
---4>6----------------------------------------


w/ harmonizer(8va basso)

----------------------------------------------
---------------------------------------8---9--
----------7-------7---8---10---8---10---------
--8---10-----10-------------------------------
----------------------------------------------
----------------------------------------------


hamonizer out. guitar tacet. piano fill.


guitar

-----------------------------------------------------------------
--------8----11vvvvvvvvvvvv-------------11-----------8----13\9---
-----8----------------------------7--10------------8-------------
--8----------------------------8----------------10---------------
-----------------------------------------------------------------
-----------------------------------------------------------------


--------------------------------------------------------------------
---8---8---8-----9--8------6-----8>9---8------10>11---10\3--3vvvv---
---7---8---7----10--8------7-----8>10--8------10>12---11\7--7vvvv---
--------------------------------------------------------------------
--------------------------------------------------------------------
--------------------------------------------------------------------


Cm               Gm       Cm        Gm
Nothing really matters, anyone can see
Cm               AbM     Ab/Bb                     Eb      Ab/Eb   Eb
nothing raelly matters,  nothing really matters to me

Ebdim   Bb/D    Dbmaj13    C    Dbdim    C     F   

Bb     F      Fdim  C7sus4     F
Any way the wind blows


''Parlare di musica è come ballare di architettura.'' [F.Zappa]

Liuteria costruire da soli la chitarra, tutte le discussioni rilevanti
andrechallant
 
Messaggi: 2004
Località: Torino

Prossimo


Torna a Accordi TAB Riff testo chords - Studiare canzoni


Chi c’è in linea

Visitano il forum: Nessuno e 9 ospiti