Pagina 1 di 1

Accordi tab ritmo Seduto in riva al fosso - Ligabue

MessaggioInviato:
di Simon
Che ne dite questa canzone ?
Mi potreste dire il ritmo e gli accordi ?
Thanks... :wink:

MessaggioInviato:
di rufus89
intanto ecco gli accordi...
Codice: Seleziona tutto
DO SOL SIb9 FA

DO SOL SIb9 FA



 
DO

Ho parcheggiato e camminato

SOL                       SIb9     FA

non so quanto non so dove sono qua

 
DO

ma so soltanto che si sente

 
SOL

un buon profumo un bel silenzio


SIb9       
FA

e l'acqua che va

 
DO

lontano da me

 
SOL

lontano da noi

 
SIb9

lontano dalla giostra

        FA

che non si ferma mai


DO

e c'ho il biglietto si'

          SOL

ma questa corsa la vorrei

         SIb9   FA

lasciare fare a voi

LAm        SOL

 
solo a voi

MIm7               FA


la lascio fare a voi

   
SIb9       
DO

che io sto bene qui

            SOL          SIb9 FA

seduto in riva al fosso

            DO

io sto bene qui

            SOL          SIb9 FA

seduto in riva al fosso



DO SOL SIb9 FA

DO SOL SIb9 FA





DO

O e' il riflesso della luna

SOL                         SIb9    FA

o sei proprio bella se vuoi siediti!

   
DO

Hai parcheggiato e camminato

SOL

non sai quanto non sai dove

SIb9       FA

sei ma sei qui

 
DO

lontana da te

 
SOL

lontana da voi

 
SIb9

lontana da uno specchio

        FA

che non dice chi sei

 
DO

se sotto il cielo c'e' qualcosa

SOL                     SIb9

di speciale passera' di qui

 
FA

prima o poi

LAm        SOL

 
prima o poi

MIm7                FA

 
e comunque tu lo sai

   
SIb9       
DO

che si sta bene qui

            SOL      SIb9

seduti in riva al fosso

FA           DO

stiamo bene qui

            SOL       SIb9 FA

seduti in riva al fosso.



LAm SOL MIm FA

LAm SOL MIm FA

LAm SOL MIm FA

LAm SOL MIm FA




DO

Sono arrivati con la guida

SOL

e hanno apparecchiato

       SIb9     FA

per il loro pic-nic

   
DO

con sedie, tavolini,

   
SOL

la TV i telefonini

   
SIb9

e le facce di chi va

 
DO

lontano da chi?

 
SOL

Lontano da che?


SIb9

Lontano per sentito dire

FA

senza un perche'

 
DO

se vuoi restare

           SOL

resta pure ho da fare

                  SIb9  FA

e non mi viene in mente cos'e'

LAm         SOL


ma lo so che...

MIm             FA

 
io lo so com'e'

   
SIb9     
DO

che state bene li'

           SOL         SIb9 FA

seduti in riva al fosso

           DO

state bene li'

            SOL         SIb9 FA

seduti in riva al fosso



DO SOL SIb9 FA



DO                    SOL                  SIb9 FA

State bene li',
state bene li', state bene li'

     DO                    SOL                  SIb9 FA SOLm
REm DO

dico state bene li', state bene li', state bene li'

MessaggioInviato:
di Simon
Ma come si fa il Sib9 ??? :D

MessaggioInviato:
di Eridanus04
e il ritmo invece come lo fate?

MessaggioInviato:
di Giortz88
Simon ha scritto:Ma come si fa il Sib9 ??? :D


Io personalmente al posto del sib9 uso quest'accordo

--1--
--1--
--3--
--3--
--1--
--1--

Se non sbaglio quello che chiedi tu è così

--1
--3
--3
--3
--1
--1

Cambia solo una nota sulla corda del si, suonano bene tutti e due gli accordi ma è più facile il primo!!!
Ciao ciao :P :P :P :P

MessaggioInviato:
di Francus
Giortz88 ha scritto:
Simon ha scritto:Ma come si fa il Sib9 ??? :D


Io personalmente al posto del sib9 uso quest'accordo

--1--
--1--
--3--
--3--
--1--
--1--

Se non sbaglio quello che chiedi tu è così

--1
--3
--3
--3
--1
--1

Cambia solo una nota sulla corda del si, suonano bene tutti e due gli accordi ma è più facile il primo!!!
Ciao ciao :P :P :P :P


ufficialmente il SIb9 è il primo dei 2 postati da giortz ke in questo caso è + semplice........ma ricordatevi che gli accordi in 7 e in 9(di 7 e di 9) sn solo abbellimenti e , se nn sbaglio, possono essere fatti all interno di un brano cm normali accordi naturali!!!es. il DO7 può essere suonato semplicemente cm 1 DOmaggiore!!!!!!!!!!!!!!!! :wink: :wink: :wink:

MessaggioInviato:
di Guit'EmAll
Simon ha scritto:Ma come si fa il Sib9 ??? :D


L'accordo di Sib9 è un accordo normale (Tonica, Terza Maggiore, Quinta Giusta) con SETTIMA e NONA. La NONA è semplicemente una SECONDA un'ottava più alta.

Le note che lo compongono sono:

Nona = Do (un'ottava sopra)
Settima = Lab
Quinta Giusta = Fa
Terza Maggiore= Re
Tonica = Sib


Lo puoi fare in tanti modi.

Lo potresti fare " X 1 0 1 1 1 " (" X Sib Re Lab Do Fa "),

oppure, più semplicemente: " X 3 3 3 3 4 " (" X Do Fa Sib Re Lab ").

:wink:

Re: Seduto in riva al fosso - Ligabue

MessaggioInviato:
di Download
qualcuno sa fare la parte strumentale dopo il primo ritornello?
la parte che si svolge sugli accordi

Do Sol Sib Fa Do Sol

sarei molto grato se riusciste a fornirmela ^^

Re: Seduto in riva al fosso - Ligabue

MessaggioInviato:
di Mauro80
Download ha scritto:qualcuno sa fare la parte strumentale dopo il primo ritornello?
la parte che si svolge sugli accordi

Do Sol Sib Fa Do Sol

sarei molto grato se riusciste a fornirmela ^^


Cavolo, pensavo ci fosse già... C??$
Codice: Seleziona tutto
SEDUTO IN RIVA AL FOSSO TAB BY MAURO80 (SOLO 1)

Legenda

/\ = slide
h  = hammer-on
v  = vibrato

e-------------3-3-------8-6\5-3h5---0-1-------------------------3h5-3----------
B-----1-1-3/5-------3/5-----------3---1---4-3-------3-5-3---0-1----------------
G-0h2---------------------------------2-------5-2-5----------------------------
D-------------------------------------3-------------------------------3h5-3----
A-------------------------------------3-------------------------------------3vv
E-------------------------------------1----------------------------------------


Se interessano, posto anche gli altri due... datemi solo il tempo di trascriverli :-DD

Re: Seduto in riva al fosso - Ligabue

MessaggioInviato:
di Baltow
io la faccio così xD
Codice: Seleziona tutto
[Intro]


   C          G     Bb9  F
e:-0----------3--|--1----1---------------|
B:-1----------0--|--1----1---------------|
G:-0-------0--0--|--3----2----2-2-3-2-0--|
D:-2---0h2----0--|--3----3--3------------|
A:-3-3--------2--|--1----3---------------|
E:-0----------3--|--1----1---------------|
[Assolo di chitarra 1]
-------------------8---|----------------------|---------
-------------8-------8-|-10^-10-8-10----------|---------
-----5-5-7/9---8h9-----|-------------8h9------|---------
-5h7-------------------|-----------------10tr-|---------
-----------------------|----------------------|---------
-----------------------|----------------------|---------

---------------------|---5\3-------|
-8^-8---------8^-----|-------------|
-7^-7-5---5-7-7^-7-3/|5------3/5\3-|
--------7------------|-------------|
---------------------|-------------|
---------------------|-------------|
[Assolo di chitarra 2]

-----------------|---------5-7-7^-7-5-----|-------------
-----------8-----|-10^tr-5-5-5----5---8tr-|-/10-6^------
-3-3-2-/9-----9--|-12^--------------------|--------9\---
-3-3-3--12-14-12-|------------------------|-------------
-1-1-3-----------|------------------------|-------------
-----1-----------|------------------------|-------------

-----------|-----------------------------|-----3-----3--
-----------|-----------------------------|-------------5
---2-4-5tr-|-7h9p7\5-7-5\4h5p4p0-----2tr-|-4h5---4h5----
-----------|---------------------5p0-----|--------------
-3---------|-----------------------------|--------------
-----------|-----------------------------|--------------

-------|------------------------------------|------5-7^-
-3-1p0-|-5-3-0------------------------------|----5------
-------|-------5-4-0-2-0------------5-7---7-|-7^--------
-------|-----------------2-0-5tr-/7-----7---|-----------
-------|------------------------------------|-----------
-------|------------------------------------|-----------

-7-5-----|-8^----|
-----8tr-|-8^--5-|
---------|-------|
---------|-------|
---------|-------|
---------|-------|
da 911tabs.com
ciao ciao