sei nell'anima - gianna nannini

Hai trovato gli accordi chords di una canzone ad orecchio e vorresti suggerirla? Oppure vuoi proporre la TAB per chitarra del tuo Riff preferito? il testo? Questo è il forum giusto! Anche per suggerimenti sul ritmo di una canzone. Ricordati di usare la funzione cerca...

sei nell'anima - gianna nannini

Messaggiodi massidf

Qualcuno sa l'assolo iniziale di sei nell'anima :P di gianna nannini, sono poche note ma proprio niente non lo trovo.
Grazie
massidf
Musicista embrione
Musicista embrione
 
Messaggi: 2


Messaggiodi andrea_funguitar90

Ciao..

ho trovato l'assolo ad orecchio ma credo che sia abbastanza giusto

Le note sono tutte della scala di sol e sono:

Fa# sol fa# sol mi sol ( questo è l'ordine da seguire)

magari arpeggialo....vedi tu dove suona meglio...

ciao :P
" Quel che è meglio e che la chitarra ti prende anche l'anima e non solo le dita e la voce.."
andrea_funguitar90
Musicista neonato
Musicista neonato
 
Messaggi: 102

Messaggiodi massidf

grazie. Sei stato grande, io sono solo agli inizi e proprio non ci riuscivo a trovarlo
Grazie ancora
massidf
Musicista embrione
Musicista embrione
 
Messaggi: 2

Messaggiodi Rustuzzz

Io l'intro la faccio così:

Sol (GGGG)

Do (SSGSGSGS)

Poi il verso lo faccio così:

Mim Do Re

tutto con il ritmo GGGGSSGSGSGS

e il ritornello

Sol Do Lam Re

con lo stesso ritmo del verso


... spero d'essere stato chiaro, se ci riesco metto un video 8)
Rustuzzz
Musicista neonato
Musicista neonato
 
Messaggi: 186
Località: Messina

Messaggiodi Francus

EHI RAGA!!!!!
IO HO TROVATO UN ALTRO MODO X IL RIFF INIZIALE DI SEI NELL ANIMA.....IL MIO E':

Sol - Sol# - Sol - Fa - Sol# - Mib - Sol#

NN SN SICURO X LE ULTIME NOTE, MA MI VIENE ABB BENE!
VEDETE VOI!!!!!!!!!!!!!!!
:x
Vivi la vita giorno x giorno!!!!!!!!
Guitar is all my life!!!!
Hola amigos!!!!!!!!

IMPOSSIBLE IS NOTHING
Francus
Musicista bebè
Musicista bebè
 
Messaggi: 235
Località: Bologna

Messaggiodi lamento

sempre sperando nella formattazione .. un altro piccolo contributo nanniniano molto facile e molto "d'effetto"

------------------------------------------------------------------------------
------------------------------------------------------------------------------
-----0-----0------------------------------------------------------------------
-2/4---4/2---0----------------------------------------------------------------
------------------------------------------------------------------------------
------------------------------------------------------------------------------
lamento
Musicista embrione
Musicista embrione
 
Messaggi: 39

Re:

Messaggiodi moonlight

lamento ha scritto:sempre sperando nella formattazione .. un altro piccolo contributo nanniniano molto facile e molto "d'effetto"

------------------------------------------------------------------------------
------------------------------------------------------------------------------
-----0-----0------------------------------------------------------------------
-2/4---4/2---0----------------------------------------------------------------
------------------------------------------------------------------------------
------------------------------------------------------------------------------


la ritengo BUONA ma non precisissima!
Suggerimenti?!?!
..non c'è ragione di combattere un dolore se vaccino non ce n'è!
moonlight
Musicista neonato
Musicista neonato
 
Messaggi: 135



Torna a Accordi TAB Riff testo chords - Studiare canzoni


Chi c’è in linea

Visitano il forum: Nessuno e 3 ospiti