3 Doors Down - Here Without You

Hai trovato gli accordi chords di una canzone ad orecchio e vorresti suggerirla? Oppure vuoi proporre la TAB per chitarra del tuo Riff preferito? il testo? Questo è il forum giusto! Anche per suggerimenti sul ritmo di una canzone. Ricordati di usare la funzione cerca...

3 Doors Down - Here Without You

Messaggiodi Manuele

Qualcuno ha gli accordi e le tablature? grazie :)


Manuele
 
Messaggi: 64


Messaggiodi SoundOfDreams

accordi
http://www.911tabs.com/link/?4104861

Tab

Codice: Seleziona tutto
Intro/Verse

   Am              F       G       Am               G
e--------------------------------------------------------------------
B------1--0--0-1---------------0-------1--0--0-1--------0--1--0-1/3--
G-----2-2--2--2-2-----2------0--0-----2-2--2--2-2------0-0--0--0-----
D----2---2--2----2---3-3------0--0---2---2--2----2----0---0--0-------
A--0--------------0-3---3---2------0---------------0-2---------------
E------------------1-------3------------------------3----------------



CHORUS  Repeat 2X'S
   C         G       Am
e----------------1-0-----------3--1-0------------------------
B----1-3--1--1------3-1-----0---------3-----1--3--1-3-1-0-1--
G---0-0-0--0--0-----------0--0------------2--2--2--2---------
D--------2--2------------0-0--0--0-0-0---2-2--2--2-----------
A--3--------------------2---------------0--------------------
E------------------------------------------------------------


   F     G
e-------------------
B-----1--------0----
G----2-2-----0--0---
D---3---3-----0--0--
A--3--------2-------
E---------3---------

play second time through chorus
  Am               G          Am           F   G
e----------------------------------------------------------------
B-----1--0--0-1--------0--0--1/3-----1--0--0-1--------------0----
G----2-2--2--2-2------0--0--0-------2-2--2--2-2-----2-----0--0---
D---2---2--2----2----0-------------2---2--2----2---3-3-----0--0--
A-0--------------0--2------------0--------------0-3---3--2-------
E------------------3-----------------------------1------3--------




se ne vuoi altre http://www.911tabs.com/tabs/0-9/3_doors ... ou_tab.htm


SoundOfDreams
 
Messaggi: 12638
Località: Villa Literno (Caserta)

Messaggiodi Manuele

grazie mille


Manuele
 
Messaggi: 64

Messaggiodi Lustevie

se vuoi sentire la mia versione della loro song vai su : http://myspace.com/lustevie


Lustevie
 
Messaggi: 20

Messaggiodi Clapton

Ho trovato questo su: http://www.guitaretab.com/3/3-doors-down/24373.html
Codice: Seleziona tutto
3 Doors Down - Here without you - Away From The Sun


Tabbed by: Erik Carlson   erikcheese5@hotmail.com
ok, i think this is pretty damn close.  if anyone would like
to send some feedback or anything, let me know

Am [0,0,2,2,1,0]
G  [3,2,0,0,0,3]
F  [1,3,3,2,1,1]
C  [0,3,2,0,1,0]

[Intro = Am F G]

         Am                              G
A hundred days have made me older Since the last time that I saw your
   Am   F G
pretty face,
      Am               G
A thousand lies have made me colder, And I don't think I can look at this the same
Am                    G
An all the miles that separate,
Am             F           G
They Disappear now when I'm dreamin' of your face

CHORUS
C            G             Am
I'm here without you baby, But you're still on my lonely mind
             F      G           C
I think about you baby and I dream about you all the time
            G                  Am
I'm here without you baby, But you're still with me in my dreams,
      F           G        Am   G   Am F G
And tonight, there's only you and me  yeah.

   Am             G               Am  F  G
The miles just keep rollin', As the people leave their way to say hello
      Am          G            Am
I've heard this life is overrated, But I hope that it gets better as we go
F     G
hooh yeah yeah.


CHORUS

Am          C            G
Everything I know, and anywhere I go
           F
It gets hard but it won't take away my love,
Am              C                  G
And when the last one falls, when it's all said and done.
           F            C    G   Am  F G
It gets hard but it won't take, away, my love, woah oh Woah    wo-oh

CHORUS



Intro/Verse

   Am              F       G       Am               G
e--------------------------------------------------------------------
B------1--0--0-1---------------0-------1--0--0-1--------0--1--0-1/3--
G-----2-2--2--2-2-----2------0--0-----2-2--2--2-2------0-0--0--0-----
D----2---2--2----2---3-3------0--0---2---2--2----2----0---0--0-------
A--0--------------0-3---3---2------0---------------0-2---------------
E------------------1-------3------------------------3----------------



CHORUS  Repeat 2X'S
   C         G       Am
e----------------1-0-----------3--1-0------------------------
B----1-3--1--1------3-1-----0---------3-----1--3--1-3-1-0-1--
G---0-0-0--0--0-----------0--0------------2--2--2--2---------
D--------2--2------------0-0--0--0-0-0---2-2--2--2-----------
A--3--------------------2---------------0--------------------
E------------------------------------------------------------


   F     G
e-------------------
B-----1--------0----
G----2-2-----0--0---
D---3---3-----0--0--
A--3--------2-------
E---------3---------

play second time through chorus
  Am               G          Am           F   G
e----------------------------------------------------------------
B-----1--0--0-1--------0--0--1/3-----1--0--0-1--------------0----
G----2-2--2--2-2------0--0--0-------2-2--2--2-2-----2-----0--0---
D---2---2--2----2----0-------------2---2--2----2---3-3-----0--0--
A-0--------------0--2------------0--------------0-3---3--2-------
E------------------3-----------------------------1------3--------

poi ho trovato anche dei video su youtube:
1) http://www.youtube.com/watch?v=vvgesvHougI
2) http://www.youtube.com/watch?v=qZNpJ_ts9_U

vedo che nei video mettono il capotasto al primo tasto ma nella tab che ho non dice nulla, ci vuole vero? I tizi del video se non sbaglio, suonano la stessa tab che ho postato?


Clapton
 
Messaggi: 1803
Località: Caltanissetta

Messaggiodi Clapton

Come suggeritomi dal mio amico Esteban metto la seguente tab, che pare essere più corretta e ordinata, dategli un'occhiata e poi mi dite :wink:
Tratta da: http://www.fretplay.com/
Codice: Seleziona tutto

Date: Thu, 4 Dec 2003 23:28:44 -0500
From: Tony Rinehart
Subject: 3/3_doors_down/here_without_you.tab

3 Doors Down - Here Without You

I noticed there was no tab file available for this song, only a chord 
file.
For a song like this, however, you really do need tabs, not just chords.

CAPO FRET 1, STANDARD TUNING - ALL POSITIONS RELATIVE TO CAPO

Intro x1
Verse x3     *Intro*
Chorus x2     
e|--------------------------------|--------------------------------| Verse x3   
B|---------1-----0-----0---1------|-------------------------0------| Chorus x2
G|-------2---2-----2-----2---2----|---------------------0-----0----| Bridge     
D|-----2-------2-----2------------|-------3-----------0---------0--| Chorus x4 
A|-0---------------------------0--|---0h3---3-0--------------------| End Chord 
E|-------------------------------3|-1-----------3-----------------3|
                 1   + a 2 e + a 3 e + a 4 e + a  1 e + a 2 e +     e +   
  4 e + a
*Verse*
e|--------------------------------|--------------------------------|
B|---------1-----0-----0---1------|---------0-----1-----0---1/3----|
G|-------2---2-----2-----2---2----|-------0---0-----0-----0--------|
D|-----2-------2-----2---------2--|-----0-------0-----0------------|
A|-0-----------------------------0|--------------------------------|
E|--------------------------------|-3------------------------------|
    1   + a 2 e + a 3 e + a 4 e + a  1   + a 2 e + a 3 e + a 4

e|--------------------------------|--------------------------------|
B|---------1-----0-----0---1------|-------------------------0------|
G|-------2---2-----2-----2---2----|---------------------0-----0----|
D|-----2-------2-----2------------|-------3-----------0---------0--|
A|-0---------------------------0--|---0h3---3-0--------------------|
E|-------------------------------3|-1-----------3-----------------3|
    1   + a 2 e + a 3 e + a 4 e + a  1 e + a 2 e +     e +   4 e + a

*Chorus*
e|---------------0---------1p0----|---------------3-----1---0------|
B|---------3---------1---------3-1|---------0-------0-----------3--|
G|-------0---0---------0----------|-------0---0-------0---0---0---0|
D|-----2-------2---------2--------|-----0-------0------------------|
A|-3------------------------------|--------------------------------|
E|--------------------------------|-3------------------------------|
    1   + a 2 e + a   e + a 4 e + a  1   + a 2 e + a 3 e + a 4 e + a

e|--------------------------------|--------------------------------|
B|---------1-----3---1-----3p1----|-------------------------0------|
G|-------2---2-----------2-----2--|---------------------0-----0----|
D|-----2-------2-----------------2|-------3-----------0---0-----0--|
A|-0------------------------------|---0h3---3-0--------------------|
E|--------------------------------|-1-----------3-----------------3|
    1   + a 2 e + a   e   a 4 e + a  1 e + a 2 e +     e + a 4 e + a

                                                                ADG
*Bridge chords*  am  C  G  F  am  C  G  F  F     *End chord* -x022xx-



Excellent chick song; not hard to learn but hard to perfect

Tabbed by - Tony Rinehart (tonyrinehart@traverse.net)




Ah mi raccomando capotasto al primo tasto! :wink:


Clapton
 
Messaggi: 1803
Località: Caltanissetta

Messaggiodi lor_nikon

Lustevie ha scritto:se vuoi sentire la mia versione della loro song vai su : http://myspace.com/lustevie

:x davvero bravo


lor_nikon
 
Messaggi: 5

Messaggiodi Clapton

Raga non riesco proprio a farla come il tizio nel primo video seguendo le tab che ho postato, sembra mancare qualcosa! :?


Clapton
 
Messaggi: 1803
Località: Caltanissetta

Messaggiodi thefort

Scusate raga, ma io ho una classica, e non so cos'é il capotasto? Come la suono?


thefort
 
Messaggi: 51

Messaggiodi andrechallant

puoi suonarla tranquillamente cosi', non l'ho provata, ma da quello che ho capito, la canzone originale e' un semitono piu' alta di quella postata.. quindi se la suoni senza capotasto verra' solo un semitono piu' bassa dell'originale.
ps. il capotasto e' un aggeggino che blocca tutte le corde sul tasto che vuoi tu, in modo da suonare la canzone uno o piu' semitoni piu alta

Immagine
(scusate non ho trovato il topic in cui se ne parlava..)


''Parlare di musica è come ballare di architettura.'' [F.Zappa]

Liuteria costruire da soli la chitarra, tutte le discussioni rilevanti
andrechallant
 
Messaggi: 2004
Località: Torino

Messaggiodi Clapton

andrechallant ha scritto:puoi suonarla tranquillamente cosi', non l'ho provata, ma da quello che ho capito, la canzone originale e' un semitono piu' alta di quella postata.. quindi se la suoni senza capotasto verra' solo un semitono piu' bassa dell'originale.
ps. il capotasto e' un aggeggino che blocca tutte le corde sul tasto che vuoi tu, in modo da suonare la canzone uno o piu' semitoni piu alta

Immagine
(scusate non ho trovato il topic in cui se ne parlava..)

Andre infatti ho specificato che per usare la tab postata bisogna usare il capotasto, così viene in tonalità originale! Comunque ho modificato un po la seconda tab che ho postato che mi sembrava la più corretta, l'ho modificata riascoltando il tizio del primo video, più tardi la posto e magari date un occhiata confrontandola con il primo video per vedere se è uguale!


Clapton
 
Messaggi: 1803
Località: Caltanissetta

Messaggiodi Clapton

Allora le note in rosso sono quelle che ho aggiunto e che secondo me fa il tizio del primo video, ho tolto solamente il 3 sulla sesta corda nella prima terza e quarta riga della tab postata. Ditemi se va bene! :wink: Ho dovuto togliere la funzione code sennò non si vedeva il colore rosso! Anche se un po sfasate le linee, si capisce!



Date: Thu, 4 Dec 2003 23:28:44 -0500
From: Tony Rinehart
Subject: 3/3_doors_down/here_without_you.tab

3 Doors Down - Here Without You

I noticed there was no tab file available for this song, only a chord
file.
For a song like this, however, you really do need tabs, not just chords.

CAPO FRET 1, STANDARD TUNING - ALL POSITIONS RELATIVE TO CAPO

Intro x1
Verse x3 *Intro*
Chorus x2
e|--------------------------------|--------------------------------| Verse x3
B|---------1-----0-----0---1------|---------------------------0------| Chorus x2
G|-------2---2-----2-----2---2----|---------------------0-------0-----0| Bridge
D|-----2-------2-----2------------|-------3-----------0-----0------0--| Chorus x4
A|-0---------------------------0--|---0h3---3-0--------------------| End Chord
E|-------------------------------3|-1-------------3------------------|
1 + a 2 e + a 3 e + a 4 e + a 1 e + a 2 e + e +
4 e + a
*Verse*
e|--------------------------------|--------------------------------|
B|---------1-----0-----0---1------|---------0-----1-----0---1/3----|
G|-------2---2-----2-----2---2----|-------0---0-----0-----0--------|
D|-----2-------2-----2---------2--|-----0-------0-----0------------|
A|-0-----------------------------0|--------------------------------|
E|--------------------------------|-3------------------------------|
1 + a 2 e + a 3 e + a 4 e + a 1 + a 2 e + a 3 e + a 4

e|--------------------------------|--------------------------------|
B|---------1-----0-----0---1------|---------------------------0------|
G|-------2---2-----2-----2---2----|---------------------0-------0-----0|
D|-----2-------2-----2------------|-------3-----------0-----0------0--|
A|-0---------------------------0--|---0h3---3-0--------------------|
E|-------------------------------3|-1-------------3------------------|
1 + a 2 e + a 3 e + a 4 e + a 1 e + a 2 e + e + 4 e + a

*Chorus*
e|---------------0---------1p0----|---------------3-----1---0------|
B|---------3---------1---------3-1|---------0-------0-----------3--|
G|-------0---0---------0----------|-------0---0-------0---0---0---0|
D|-----2-------2---------2--------|-----0-------0------------------|
A|-3------------------------------|--------------------------------|
E|--------------------------------|-3------------------------------|
1 + a 2 e + a e + a 4 e + a 1 + a 2 e + a 3 e + a 4 e + a

e|--------------------------------|--------------------------------|
B|---------1-----3---1-----3p1----|-------------------------0------|
G|-------2---2-----------2-----2--|---------------------0-----0----0|
D|-----2-------2-----------------2|-------3-----------0---0-----0--|
A|-0------------------------------|---0h3---3-0--------------------|
E|--------------------------------|-1-------------3------------------|
1 + a 2 e + a e a 4 e + a 1 e + a 2 e + e + a 4 e + a

ADG
*Bridge chords* am C G F am C G F F *End chord* -x022xx-



Excellent chick song; not hard to learn but hard to perfect

Tabbed by - Tony Rinehart (tonyrinehart@traverse.net)
Ultima modifica di Clapton su , modificato 1 volte in totale.


Clapton
 
Messaggi: 1803
Località: Caltanissetta

Messaggiodi Clapton

Nessuno l'ha provata? :?:


Clapton
 
Messaggi: 1803
Località: Caltanissetta

Messaggiodi Mauro80

Ehm... io no... che scansafatiche... :oops:


Mauro80
 
Messaggi: 7933
Località: TO

Messaggiodi Seejay

io la sto provando ma nn mi trovo quii :cry: :

e|--------------------------------|--------------------------------| Verse x3
B|---------1-----0-----0---1------|---------------------------0------| Chorus x2
G|-------2---2-----2-----2---2----|---------------------0-------0-----0| Bridge
D|-----2-------2-----2------------|-------3-----------0-----0------0--| Chorus x4
A|-0---------------------------0--|---0h3---3-0--------------------| End Chord
E|-------------------------------3|-1-----------3------------------|

forse devo ascoltare ancora la canzone!! ci riusciroooòO? :x


Seejay
 
Messaggi: 66
Località: SA

Prossimo


Torna a Accordi TAB Riff testo chords - Studiare canzoni


Chi c’è in linea

Visitano il forum: Nessuno e 9 ospiti