Pagina 1 di 1

Accordi tab ritmo intro riff solo Litfiba - Spirito

MessaggioInviato:
di andre86


Qualcuno può dirmi gli accordi e la loro diteggiatura di spirito dei litfiba? :?

MessaggioInviato:
di Ally83
Codice: Seleziona tutto
G
Quando mi sveglio cerco i miei sogni
F
Non li ritrovo più
G
Non apro gli occhi per chiamarti indietro
F
E rivedere la mia fantasia
G
Spirito libero
F
Sto contento quando mi parli dentro
G
Libero spirito
F
Sto contento quando mi balli dentro

Il mondo e storto aspetta in coda
Appeso a un semaforo
Provo a smontarlo con un sorriso
E' il solo gioco che so il mondo e' un cannibale
Spirito libero
Sto contento quando mi parli dentro
Libero spirito
Sto contento quando mi parli dentro

G                       C        F
Sei la scintilla che scatena l'intensità
G                      C           F
Fratello libero sei il genio della lampada
G                        C               F
Cambia la rabbia dal mio corpo quando ci sei
G                         C        F
E ogni problema e' un labirinto fantastico
G   C F G   C F G   C    F
                    Spirito


Il mondo e storto gioca col morto
E ruba la fantasia
Provo a smontarlo con un sorriso
E' il solo gioco che so il mondo e' un cannibale

Spirito libero
Sto contento quando mi balli dentro
Libero spirito
Sto contento quando mi parli dentro

Sei la scintilla ...

per altri Spartiti
            ___________               
Alessandro/   ________)  alexsus@freemail.it
          /      _)       alexandrus@mclink.it
   E-Mail        _)           
          \      _)                   
           \______) ICQ:  13307452


-----------------------------------------------
Io di solito la faccio cosi'. Non sono granche' nel trovare il
tempo, quindi puo' darsi che non sia perfettamente allineato
sulle battute. Le note dovrebbero essere quelle pero'. Se e
quando avro' tempo lo sbatto dentro a Guitar Pro e vedo cosa esce
;)))
So anche fare quasi tutta *La musica fa*, comprese le TAB. Se
interessa posso trascriverla.


  G                             G
|-----------------------------|-----------------------------|
|-----------------------------|-----------------------------|
|-5p4p0-5p4p0-5p4p0-----------|-5p4p0-5p4p0-5p4p0---4-5-----|
|-----------------------------|-----------------------------|
|-----------------------------|-----------------------------|
|-----------------------------|-----------------------------|


  F                             F
|-----------------------------|-----------------------------|
|-----------------------------|-----------------------------|
|-7-------------------5p4h5p4-|---0-4-0-----7b8r------------|
|-----------------------------|-3-------3-------------------|
|-----------------------------|-----------------------------|
|-----------------------------|-----------------------------|

riff sotto il cantato

|----------------------------------------------------------|
|----------------------------------------------------------|
|-5-4-5--/7-----5-4-5--/7---5-4-5--3---5-4-5--3------------|
|----------------------------------------------------------|
|----------------------------------------------------------|
|----------------------------------------------------------|




spirito litfiba

MessaggioInviato:
di ghigo84
ciao ally.sai dove posso trovare le tab x gli assoli di spirito?tu sai eseguirli?risp
grazie

Accordi tab ritmo intro riff solo Litfiba - Spirito

MessaggioInviato:
di mauz bitto
Aggiungo il video

Re: spirito litfiba

MessaggioInviato:
di wladdo75
ghigo84 ha scritto:ciao ally.sai dove posso trovare le tab x gli assoli di spirito?tu sai eseguirli?risp
grazie


Ghigo...non hai letto la data del post di Ally????
16 Giugno 2006 :oops: :)

ora vedo se riesco a trovare qualcosa io... :wink:

Re: Accordi tab ritmo intro riff solo Litfiba - Spirito

MessaggioInviato:
di Susan
Unito topic