Pagina 1 di 2

Accordi Tab Riff Solo SCAR TISSUE - red hot chili peppers

MessaggioInviato:
di lorenzo
qualcuno ha gli accordi????????? grazie



MessaggioInviato:
di Clapton
Eccola! Questa è la versione per classica e acustica se vuoi ci sono varie versioni per l'elettrica!




Codice: Seleziona tutto
Intro:   F  C  Dm  C  F  C  Dm
display solos and tips
e-----------------------
b-10---10---------------
g---------9--9-----9--9-
d-----------------------
a8--8-8-----------------
e--------8-10-10-10-8---



F                             
Scar tissue that I wish you saw 
Dm
Sarcastic mister know it all 
F
Close your eyes and I’ll kiss you ’cause 
     Dm
With the birds I’ll share 

F
With the birds I’ll share 
     Dm
This lonely view 
F
With the birds I’ll share 
     Dm
This lonely view 

F
Push me up against the wall 
Dm
Young Kentucky girl in a push-up bra 
F
Fallin’ all over myself 
   Dm
To lick your heart and taste your health ’cause 

F
With the birds I’ll share
     Dm
This lonely view
F
With the birds I’ll share
     Dm
This lonely view


F
Blood loss in a bathroom stall 
Dm 
Southern girl with a scarlet drawl
F
Wave goodbye to ma and pa ’cause 
     Dm
With the birds I’ll share 

F
With the birds I’ll share
     Dm
This lonely view
F
With the birds I’ll share
     Dm
This lonely view

F
Soft spoken with a broken jaw 
Dm
Step outside but not to brawl
F
Autumn’s sweet we call it fall 
     Dm 
I’ll make it to the moon if I have to crawl and 

F
With the birds I’ll share
     Dm
This lonely view
F
With the birds I’ll share
     Dm
This lonely view

F
Scar tissue that I wish you saw
Dm
Sarcastic mister know it all
           F
Close your eyes and I’ll kiss you ’cause 
     Dm
With the birds I’ll share 

F
With the birds I’ll share
     Dm
This lonely view
F
With the birds I’ll share
     Dm
This lonely view

le pennate?

MessaggioInviato:
di Piccolo Morrison
scusate ma le pennate in questo pezzo stupendo.. come devo farle??? datemi una mano vi pregoooo :cry:

MessaggioInviato:
di andrechallant



cosi' al volo ti direi di fare: G G-S-G G-S-S S-G-G.
non riesco a trovarne una piu' semplice che suoni abbastanza bene, comunque se non capisci come fare ti posto poi un video giusto per farti vedere come muovere la mano destra...

guarda..

MessaggioInviato:
di Piccolo Morrison
mi faresti un favore a inviarmi il video.. grazieeeeeee

Re: guarda..

MessaggioInviato:
di Dufresne
Piccolo Morrison ha scritto:mi faresti un favore a inviarmi il video.. grazieeeeeee


se ti invia il video solo a te...si perde l'utilità del forum...

cmq andrea credo che ti farà il video quando avrà tempo...poi lo posterà qui, quindi ogni tanto dai un'occhiata al forum...

MessaggioInviato:
di andrechallant
certo duf che lo posto qua!!




solo la chitarra era un po' scordata, perche' l'ho fatto di fretta... l'importante comunque penso che sia poter prendere uno spunto per le pennate...

MessaggioInviato:
di darkside
Non si fa così!

Cercate la tab giuste.

Codice: Seleziona tutto
RIFF A
   F                         C   Dm                  C
E------------------------------|------------------------|
B----10----10---10---10-----8--|------------------------|
G------------------------------|---9\10--12P10----12P10-|
D------------------------------|------------------------|
A--8-----8----8-----8----8-----|------------------------|
E------------------------------|--(8\10)----------------|

VERSE
PLAY RIFF A
THEN
  F                     C5         D5
E---------------8---|----------------------------------|
B---10---10--10--8--|--8\10--------------10------------|
G-------------------|------------------------12--10--9-|
D-------------------|----------------------------------|
A—8----8----8-------|----------------------------------|
E---------------(8)-|--(8\10)—--10--—10----------------|

CHORUS
RHY. FIG 1
E-1-1-1-1-1-1-1--1-1---|-------------------------|
B-1-1-1-1-1-1-1--1-1-5-|--6-6-6-6---6-6-6-6--5---|
G-2-2-2-2-2-2-2--2-2-5-|--7-7-7-7---7-7-7-7--5---|
D-3-3-3-3-3-3-3--3-3-5-|--7-7-7-7---7-7-7-7--5---|
A-3-3-3-3-3-3-3--3-3-3-|5-5-5-5-5---5-5-5-5--3---|
E-1-1-1-1-1-1-1--1-1---|-------------------------|
HERE YOU CAN JUST PLAY FIFTH CHORDS (F5 C5 D5)




RHY.FIG. 2
E-1-1-1-1-1-1-1--1-1---|------------------------|
B-1-1-1-1-1-1-1--1-1-5-|--6-6-6-6--6-6-6-6------|
G-2-2-2-2-2-2-2--2-2-5-|--7-7-7-7--7-7-7-7------|
D-3-3-3-3-3-3-3--3-3-5-|--7-7-7-7--7-7-7-7------|
A-3-3-3-3-3-3-3--3-3-3-|5-5-5-5-5--5-5-5-5-7----|
E-1-1-1-1-1-1-1--1-1---|-------------------8----|

VERSE
RIFF A

THEN
  F                  C5   D5                    C5
E-----------------10--8-|------------13--12--10--------|
A----10--10--10-------8-|-8\10---10-------------13-----|
G-----------------------|------------------------0-----|
D-----------------------|------------------------------|
A--8----8---8---8-------|------------------------------|
E-----------------------|-(8\10)--(10)-(10)-----(10)(8)|

CHORUS
RHY. FIG. 1 x2
INTERLUDE comes in straight after the last C5
    Dm                         C           Dm        Em
E-------|------------|----------|--------|-------------|
B-13\10-|-10-(10)----|-10\8--8--|--8\10--|-10-10\12\13-|
G-------|------------|----------|--------|-------------|
D-------|------------|----------|--------|-------------|
A-------|------------|----------|--------|-------------|
E-------|------------|----------|--------|-------------|

VERSE
  F                  C     Dm                          C
E----------------------|--------------------------------|
B---10--10--10---10----|--------------------------------|
G-------------------9--|-9\10--10---10--10--12P10-12P10-|
D----------------------|--------------------------------|
A—8----8---8----8------|--------------------------------|
E-------------------8--|(8\10)----10---10--------------8|

  F                 C5  D5               
E--------------8------|-------------------------------|
B---10--10--10---8--8-|-8\10---10--12--13--12--10-----|
G---------------------|-------------------------------|
D---------------------|-------------------------------|
A—8----8---8---8------|-------------------------------|
E---------------------|-(8\10)-----------------10—10--|

CHORUS
RHY. FIG. 1
RHY. FIG. 2

VERSE

RIFF A

THEN
E-----------------8-----|--------------12--10-----------|
B---10---10--10------8--|-8\10---10-----------13---10---|
G-----------------------|-------------------------------|
D-----------------------|-------------------------------|
A—8----8----8---8-------|-------------------------------|
E-------------------(8)-|-(8\10)-(10)-------------------|


CHORUS

RHY. FIG. 1 x3
THE THIRD TIME ISN'T RHY.FIG.1 BUT THE VARIATION IS
VERY MINOR SO ITS ALL THE SAME AND IM LAZY.
BUT ALL IT DOES IS LEAVE OUT THE ‘C’, SO THE LAST CHORD OF THE 3RD RHY. FIG IS A ‘D’

GUITAR SOLO
        D5                                       C5
E------------------------|---------------|--------------|
B--(13)\15----15\13--13\-|10--------10\8-|--8---13\--10-|
G------------------------|---------------|--------------|
D------------------------|---------------|--------------|
A------------------------|---------------|--------------|
E------------------------|---------------|--------------|

   D5
E----------|-----------------------|-------------------|
B(10)------|-(13)\15-------17---13\|10-10--(10)\13\8---|
G----------|-----------------------|-------------------|
D----------|-----------------------|-------------------|
A----------|-----------------------|-------------------|
E----------|-----------------------|-------------------|

    C5                         D5                    E5
E-------------------------|-----------------------------|
B---8----------13\----10--|------------15\17----17\18---|
G-------------------------|-----------------------------|
D-------------------------|-----------------------------|
A-------------------------|-----------------------------|
E-------------------------|-----------------------------|


VERSE
  F                 C    Dm                          C5
E---------------------|-------------------------------|
B------10---10--10----|---------10------------------8-|
G------------------9--|-9\10--------------------------|
D---10----------------|-------------------------------|
A—8—------8----8------|-------------------------------|
E------------------8--|-(8\10)-----10-10---10-10-10-8-|




  F                       C5  D5
E---------------------8------|--------------------------|
B—8\10--10—10-10---10---8-8--|-8\10-----10---10—8-6-5---|
G----------------------------|--------------------------|
D----------------------------|--------------------------|
A-------(8)----(8)-----------|--------------------------|
E-------------------------8--|-(8\10)---10--------------|

CHORUS
RHY. FIG 1 x2
RHY. FIG 3 x1  (REMEMBER HOW 2 PLAY IT?)

FINAL SOLO

E-----17---17---|-------------17--------|---------------|
B—(20)---20—-20v|vvvvvvvv-(20)--17—17vvv|vvvvvv—17\18s15|
G---------------|-----------------------|---------------|
D---------------|-----------------------|---------------|
A---------------|-----------------------|---------------|
E---------------|-----------------------|---------------|

E--------------------------|----------------------------|
B-15—-15\13--13/15—-15\13--|--13\15—15----15\13—13|\10--|
G--------------------------|----------------------------|
D--------------------------|----------------------------|
A--------------------------|----------------------------|
E--------------------------|----------------------------|

E------|------------|-------|
B—13\\\|8-----13\\\\|10-----|
G------|------------|-------|
D------|------------|-------|
A------|------------|-------|
E------|------------|-------|


E-----------------|------------|------------------------|
B-----------------|------------|------------------------|
G--------------14-|-----14—14--|----14------------------|
D----12/14\12-----|------------|--------14\12---14\\10—-|
A-----------------|------------|------------------------|
E-----------------|------------|------------------------|

E-----------------|-------------|-----------------------|
B-----------------|---------18\\|17—17—-12/13\12/15--10-|
G-----------------|--14---------|-----------------------|
D—10---10/12------|-------------|-----------------------|
A------------12---|-------------|-----------------------|
E-----------------|-------------|-----------------------|

E----------------|-------------|
B—13\10\8-----8//|10vvvvvvvv---|
G----------------|-------------|
D----------------|-------------|
A----------------|-------------|
E----------------|-------------|



Non toccate sta canzone! :)
ps. l'assolo è con il bottleneck! :P

MessaggioInviato:
di Clapton
Guardate questo sembra fatto bene!



MessaggioInviato:
di rix strummer
io ho fatto l'assolo se lo volete vedere:




ogni tanto prendo le note sbagliate me ne sn accorto ma mi rompeva rifarlo eheh

ditemi com'è :wink:

MessaggioInviato:
di Mauro80
Non entro neanche nel discorso sul bending fuori tonalità, perchè mi sa che sulla classica solo Malmsteen riesce a farlo bene... :)

Comunque, pensa che goduria quando lo farai con lo slide sull'elettrica... :x

Direi che ci sta tutto... :)

MessaggioInviato:
di J.Frusciante (magari...)
riapro un pò sta discussione và...l'altro giorno non sapevo che fare e ho deciso di registrarmi un pò alla chitarra :) e questo è il video dell'intro di scar tissue (o almeno ci assomiglia :( ) vi prego nn siate roppo severi!!!

MessaggioInviato:
di Mauro80
A me sembra che grossomodo ci sia... peccato per l'audio un po' basso!

MessaggioInviato:
di J.Frusciante (magari...)
eh purtroppo è il microfono che è na ciofeca... :twisted: :twisted:

MessaggioInviato:
di overburning
In questo video viene spiegata passaggio per passaggio la canzone




Ci sono riuscito anche io :P :x [/url]