Pagina 1 di 2

Fratelli d'Italia / inno di Mameli

MessaggioInviato:
di laurami
Visto il periodo, ho pensato che a qualcuno, preso da un forte e rinnovato senso patriottico, potesse interessare.
Da suonare e cantare rigorosamente con la maglietta e la sciarpa dell'ITALIA e tutti gli altri aggeggi per far macello!

Enciclopedia degli accordi per chitarra

E' un estratto di tutto l'inno nazionale, che è lunghissimo, praticamente quello che viene cantato dagli "azzurri".

Un ritmo semplice per suonarla potrebbe essere questo: pennate GGSG.
Quindi GGSG per "Fratelli...",
poi ancora GGSG per "...d'Italia",
poi ancora GGSG per "...l'Italia...",
si passa al RE e GG per "...s'è de...,
pennata S mentre si cambia (a vuoto)
e si passa al SOL con una pennata G "...sta...".
Codice: Seleziona tutto
Sol
Fratelli d'Italia,
         Re  Sol
l'Italia s'è desta;
     Sol
dell'elmo di Scipio
          Re Sol
s'è cinta la testa.
  Si7       Mim
Dov'è la Vittoria?
   Si7      Mim Re
Le porga la chioma;
    Sol
che schiava di Roma
         Re7 Sol
Iddio la creò.


Poi qui il ritmo cambia, e la canzone si velocizza (ascoltate bene l'originale). Si potrebbe fare GSGSGG per ogni riga sotto riportata.

Codice: Seleziona tutto
Do
Fratelli d'Italia,

l'Italia s'è desta;

dell'elmo di Scipio
             Sol7
s'è cinta la testa.

Dov'è la Vittoria?

Le porga la chioma;

che schiava di Roma
            Do
Iddio la creò.

Lam
Stringiamci a coorte!
                 Mi7
Siam pronti alla morte;
     Lam
Siam pronti alla morte;
            Mi
Italia chiamò.

               Do
Stringiamci a coorte!
                 Fa
Siam pronti alla morte;
                 Do
Siam pronti alla morte;
Sol7       Do
Italia chiamò.

Mi raccomando: cantateci sopra e... GRANDE ITALIA! :x

Fratelli d'Italia / inno di Mameli

MessaggioInviato:
di pionto
Perfetto!

da dilettante vorrei che tutti i topic fossero così chiari e dettagliati, con tipo di ritmo e numero e tipo di pennate per ogni riga, indicazione della sillaba sulla quale si cambia accordo con l'ulteriore precisazione che in occasione di un cambio d'accordo la pennata va data a vuoto. possono sembrare cose banali a chi ha esperienza, ma per me sono utilissime.
Si dovrebbe fare sempre così.

Complimenti per la chiarezza e grazie mille!

Fratelli d'Italia / inno di Mameli

MessaggioInviato:
di laurami
pionto ha scritto:...possono sembrare cose banali a chi ha esperienza, ma per me sono utilissime...

E' che ci sono passato pure io, e proprio per questo ho cercato di dare più info possibili.
Sono contento. :wink:

MessaggioInviato:
di AioroS
Utilissimo anche per me questo topic!! Grande!!!!

Fratelli d'Italia / inno di Mameli

MessaggioInviato:
di the_vespagang
:( basta sapere cos è ggss , :? quella robba ke c è all inizio..ke è

Fratelli d'Italia / inno di Mameli

MessaggioInviato:
di wladdo75
Ciao Vespa allora detta alla semplice ecco la soluzione dell'enigma!

GGSSG = giu giu su su giu (è il tipo di pennata che devi dare sulle corde)
ok?

MessaggioInviato:
di Rocky Balboa
Visto il periodo, ho pensato che a qualcuno, preso da un forte e rinnovato senso patriottico, potesse interessare. E' un estratto di tutto l'inno nazionale, che è lunghissimo, praticamente quello che viene cantato dagli "azzurri".

grazie laurami mica hai o sai dove posso trovare il riff per suonarlo cn l'elettrica per intenderci come all'inizio di italiano medio degli articolo 31?

MessaggioInviato:
di Vladus
Potete trovare un Tabulato? Vorrei farlo con l'elettrica :P

MessaggioInviato:
di }gu|do[z]{®©
io l'ho trovata ad orecchio fino ad un certo puntio... provo a trascrivere...
Codice: Seleziona tutto
-----------0-0-1-0--0-3-1-0-----0-------0-0----------------
-1-1-3-1-----------------------3---3-1-------0-------------
-----------------------------------------------------------
-----------------------------------------------------------
-----------------------------------------------------------
-----------------------------------------------------------


più di così non vado avanti..
e di musica non capisco molto.. ma più o meno suona ^_^

Fratelli d'Italia / inno di Mameli

MessaggioInviato:
di darionescu
Duuunque... rispettando la tonalità di sol a me suonerebbe così

e------------------------------------------------------------------------
B--------------------0--0---1---0---0---3----1---0-------0-----------
G-------------------------------------------------------2------2--0---- X2
D---0---0---2---0------------------------------------------------------
A-----------------------------------------------------------------------
E------------------------------------------------------------------------

e-----------------------------------------------------------------------------
B---0----0------------------------------------------------------------0---1--
G-------------------0----2----0-------------0--------0-----2----------------
D-------------4-------------------4---2----------4---------------0----------
A-----------------------------------------------------------------------------
E-----------------------------------------------------------------------------

e-------------------------------------------------------------------------------------------------------------------------------------------------
B--------------------0--0---1---0---0---3----1---0----3---0---3------------------------------------------------------------------0-----1----
G---------------------------------------------------------------------0----0----0----0----0---0-----0-----0-----0-----2-----3--------------
D---0---0---2---0-------------------------------------------------------------------------------------------------------------------------------
A------------------------------------------------------------------------------------------------------------------------------------------------
E-------------------------------------------------------------------------------------------------------------------------------------------------

e-------------------------------------------------------------------------------------------------------------------------------------------------------------
B--------------------------------------------------------------------------------------0-----1---------------------------------------------------------------
G-------------------------------------0----0----0--------2-----0-----0----0----2------------------------2----0--------------------------------------------
D---2----2----2-----0----3-----2-------------------4-------------------------------------------2---3-------------2---3---0---0----0----0------2---0----
A------------------------------------------------------------------------------------------------------------------------------------------------4-----------
E--------------------------------------------------------------------------------------------------------------------------------------------------------------

e---------------------------------------------------------------------------------------------------------------------------------------------------------------
B-----------------------------------3-----3-----3----1---0-----0---------------------------------------------------------------------------------------------
G-------------------------0-----------------------------------------2---0----0--------------------------------------------------------------------------------
D----3----3----3----2--------3---------------------------------------------------3-----2------2-----2-----2-----0----3----2----2----2---0---------0------
A--------------------------------------------------------------------------------------------------------------------------------------------------3----------2
E---------------------------------------------------------------------------------------------------------------------------------------------------------------

e-----------------------------------------------------------------------------------------------------------------------------------------------0----0----0-------------------
B------------------------------------------------------------------------------------------------------------------------------------0----1--------------------3---3----1---1
G---------------------------------------------------------------------------------------0----0----------0-----4----2----2----2----------------------------------------------
D--2---2----2---0----3--2----2----2---0--------------2-----2----2---0---3----2---------------4--------------------------------------------------------------------------
A---------------------------------------------3---2---------------------------------------------------------------------------------------------------------------------------
E------------------------------------------------------------------------------------------------------------------------------------------------------------------------------

MessaggioInviato:
di guidomix
Però all'inizio di lambrusco e pop corn di ligabue la fa un ottava più alta! 8)

Fratelli d'Italia / inno di Mameli

MessaggioInviato:
di Mauro80
Quello può essere per rimanere nella tonalità della canzone immagino... :?

EDIT ops avevo letto "tono" al posto di "ottava"!!! :oops:

MessaggioInviato:
di guidomix
ehhh.... 8) ...cmq mi sembra che sia fatto anche in un altra tonalità!

Fratelli d'Italia / inno di Mameli

MessaggioInviato:
di darionescu
Che bravo che ero al tempo... ho trovato tutto l'inno a orecchio :) Ma qualcuno l'ha guardato? :) 8)

MessaggioInviato:
di guidomix
solo un anno fa!