Pagina 2 di 2

Fratelli d'Italia / inno di Mameli

MessaggioInviato:
di Jurimbert
Enciclopedia degli accordi per chitarra

INNO ITALIANO
e------------------------------------------------------------------------
B--------------------0--0---1---0---0---3----1---0-------0-----------
G-------------------------------------------------------2------2--0---- X2
D---0---0---2---0------------------------------------------------------
A-----------------------------------------------------------------------
E------------------------------------------------------------------------
Fratelli d’italia l’italia s’èdesta
Dell’elmo discipio s’ècinta latesta
e-----------------------------------------------------------------------------
B---0----0------------------------------------------------------------0---1--
G-------------------0----2----0-------------0--------0-----2----------------
D-------------4-------------------4---2----------4---------------0----------
A-----------------------------------------------------------------------------
E-----------------------------------------------------------------------------
Dov'è la vittoria? Le porga la chioma
e-------------------------------------------------------------------------------------------------------------------------------------------------
B------------------0-0--1--0--0--3---1--0---3--0--3---------------------------------------------------------0-----1----
G--------------------------------------------------------0---0---0---0---0--0----0----0----0----2----3--------------
D---0--0--2--0-------------------------------------------------------------------------------------------------------------------------------
A------------------------------------------------------------------------------------------------------------------------------------------------
E-------------------------------------------------------------------------------------------------------------------------------------------------

Ché schiava di Roma Iddio la creò
e-------------------------------------------------------------------------------------------------------------------------------------------------------------
B--------------------------------------------------------------------------------------0-----1--------------------------------------------------------
G-------------------------------------0----0----0--------2-----0-----0----0----2------------------------2----0--------------------------------------
D---2---2-----2-----0----3-----2-------------------4-------------------------------------------2---3-------------2---3---0---0----0----0------2---0
A------------------------------------------------------------------------------------------------------------------------------------------------4-----------
E--------------------------------------------------------------------------------------------------------------------------------------------------------

Stringiamci a coorte Siam pronti alla morte L'Italia chia
Allora, le sillabe evidenziate cadono sulle note evidenziate, ma ad andare avanti da qua mi servirebbe una mano...nn trovo le coincidenze per il resto...

Noi siamo da secoli
Calpesti, derisi
Perché non siam Popolo
Perché siam divisi
Raccolgaci un'Unica
Bandiera una Speme
Di fonderci insieme
Già l'ora suonò

Stringiamci a coorte
Siam pronti alla morte
L'Italia chiamò

Uniamoci, amiamoci
L'unione e l'amore
Rivelano ai Popoli
Le vie del Signore
Giuriamo far Libero
Il suolo natio
Uniti, per Dio,
Chi vincer ci può?

Stringiamci a coorte,
Siam pronti alla morte,
L'Italia chiamò.

Dall'Alpi a Sicilia
Dovunque è Legnano,
Ogn'uom di Ferruccio
Ha il core, ha la mano,
I bimbi d'Italia
Si chiaman Balilla
Il suon d'ogni squilla
I Vespri suonò

Stringiamci a coorte
Siam pronti alla morte
L'Italia chiamò

Son giunchi che piegano
Le spade vendute
Già l'Aquila d'Austria
Le penne ha perdute
Il sangue d'Italia
Il sangue Polacco
Bevé col cosacco
Ma il cor le bruciò

Stringiamci a coorte
Siam pronti alla morte
L'Italia chiamò

Re: Fratelli d'Italia

MessaggioInviato:
di vigasi93
c'è nessuno che può fare un video o una registrazione audio di questa tab?perchè in alcuni punti mi perdo..sentendola riuscirei meglio..grazie a tutti..

Re: Fratelli d'Italia / inno di Mameli

MessaggioInviato:
di fmattia90
AVETE LE CHORDS FATTE X BENE??? GRAZIE

Re: Fratelli d'Italia / inno di Mameli

MessaggioInviato:
di fmattia90
HO TROVATO QUESTE SAPRETE FARMI UNA VERSIONE PIù FACILE MAGAARI CAMBIANDO CAPOTASTO???? GRAZIE

F Gm D D# F D# F


A#
FRATELLI D'ITALIA

Dm A#
L'ITALIA S'E' DESTA

DELL'ELMO DI SCIPIO

Dm A#
S'E' CINTA LA TESTA

D Gm
DOV'E LA VITTORIA

D7 A#
LE PORGA LA CHIOMA

CHE SCHIAVA DI ROMA

Dm A#
IDDIO LA CREO'

D#
FRATELLI D'ITALIA

L'ITALIA S'E' DESTA

DELL'ELMO DI SCIPIO

Fm
S'E' CINTA LA TESTA

A#
DOV'E LA VITTORIA

LE PORGA LA CHIOMA

CHE SCHIAVA DI ROMA

D#
IDDIO LA CREO'

Cm
STRINGIAMOCI A COORTE

Cm9
SIAM PRONTI ALLA MORTE

Cm
SIAM PRONTI ALLA MORTE

L'ITALIA CHIAMO'

D#
STRINGIAMOCI A COORTE

Gm
SIAM PRONTI ALLA MORTE

Cm
SIAM PRONTI ALLA MORTE

A#
L'ITALIA CHIAMO'



Noi fummo da secoli

calpesti, derisi,

perché non siam popoli,

perché siam divisi.

Raccolgaci un'unica

bandiera, una speme:

di fonderci insieme

già l'ora suonò.

Re: Fratelli d'Italia / inno di Mameli

MessaggioInviato:
di mi_diverto
Codice: Seleziona tutto
   
     Sol
Fratelli d'Italia,
         Re  Sol
l'Italia s'è desta;
     Sol
dell'elmo di Scipio
          Re Sol
s'è cinta la testa.
  Si7       Mim
Dov'è la Vittoria?
   Si7      Mim Re
Le porga la chioma;
    Sol
che schiava di Roma
         Re7 Sol
Iddio la creò.

Do
Fratelli d'Italia,

l'Italia s'è desta;

dell'elmo di Scipio
             Sol7
s'è cinta la testa.

Dov'è la Vittoria?

Le porga la chioma;

che schiava di Roma
            Do
Iddio la creò.
Lam
Stringiamci a coorte!
                 Mi7
Siam pronti alla morte;
     Lam
Siam pronti alla morte;
            Mi
Italia chiamò.

               Do
Stringiamci a coorte!
                 Fa
Siam pronti alla morte;
                 Do
Siam pronti alla morte;
Sol7       Do
Italia chiamò.



Non trovo più la versione fatta da Zucchero, dovrebbe essere corretta questa, ma non sono sicuro, non la posso provare adesso. Se la provi e mi dici che non ti trovi vediamo di sistemarla.

Re: Fratelli d'Italia / inno di Mameli

MessaggioInviato:
di Dufresne
Un pò di video utili di Massimo Varini sul tema :-DD

Versione e arrangiamento di Massimo Varini realizzato in occasione del concerto al "Night & Blues" tenutosi il 22 luglio 2011 presso il Rione Santo Spirito di Ferrara, come commemorazione dei 150 anni dell'Unità d'Italia

BELLISSIMA VERSIONE!




Qui invece spiega come realizzarla... BUON DIVERTIMENTO!