Pagina 1 di 1

Fiore di maggio (Fabio Concato)

MessaggioInviato:
di TotoVox
Ciao a tutti.
Mi potete aiutare? Sto cercando Fiore di Maggio di Concato, non tanto gli accordi (che già ho) ma come vanno pizzicate per suonarla con l'arpeggio... :P
Grazie e a presto
:shock:

MessaggioInviato:
di storm
Codice: Seleziona tutto
    -------3----------3-   
    ----------0---------   
    --0-----------0----   
    --------------------               
    --------------------             
    --------------------   


l'arpeggio del Sol è questo...ora vedo gli altri....

MessaggioInviato:
di TotoVox
storm ha scritto:
Codice: Seleziona tutto
    -------3----------3-   
    ----------0---------   
    --0-----------0----   
    --------------------               
    --------------------             
    --------------------   


l'arpeggio del Sol è questo...ora vedo gli altri....



Grazie dell'aiuto

MessaggioInviato:
di Ally83
Guarda io faccio l'arpeggio classico...cioè suona il basso dell'accordo e poi andata e ristorno sulle prime tre corde...per ogni accordo...e viene benissimo....

Fabio Concato - Fiore di Maggio

MessaggioInviato:
di fa_brizio
ciao ragazzi posso chiedervi se gentilmente qualcuno di voi potesse postare le intavolature degli arpeggi di alcune canzoni di concato? in particolar modo domenica bestiale e fiore di maggio, ma ribadisco solo se ci sono le parti arpegiate perchè gli accordi su internet li trovo molto facilmente

MessaggioInviato:
di SoundOfDreams
Puoi aprire solo un topic per canzone..questo lo fò diventare fiore di maggio..

MessaggioInviato:
di Mauro80
Ecco la versione che ho io di questa bellissima canzone:

Codice: Seleziona tutto
         FIORE DI MAGGIO
            Fabio Concato

~~~~~~~~~~~~~~~~~~~~~~~~~~~~~~~~~~~~~~

Testo non proporzionale (Courier/New)

Posizioni consigliate (con diteggiatura ):

Re/Fa# Re/Fa#(1)
---    ---
-3-m   -1-i
-2-a   -2-a
-0-    -0-
---    ---
-2-M   -2-M

(Intro)
(Repeat x1)

Sol             Do7+             Re/Fa#  Re/Fa#(1) Re/Fa#
|-------3-------|-------0--------|---------------------------|
|-----3---3---3-|-----0---0---0--|-------3-----1-----3-------|
|---0-------0---|---0-------0----|-----2-----2-----2---2---2-|
|---------------|----------------|---0-----0-----0-------0---|
|---------------|-3--------------|---------------------------|
|-3-------------|----------------|-2-------------------------|


(Verse 1)

Sol             Do7+             Re/Fa#  Re/Fa#(1) Re/Fa#
|-------3-------|-------0--------|---------------------------|
|-----3---3---3-|-----0---0---0--|-------3-----1-----3-------|
|---0-------0---|---0-------0----|-----2-----2-----2---2---2-|
|---------------|----------------|---0-----0-----0-------0---|
|---------------|-3--------------|---------------------------|
|-3-------------|----------------|-2-------------------------|
Tu che sei nata dove c'è sempre il sole

LAm             RE/FA#           SOL                  SIm
|-------0-------|----------------|-------3-------|    |-------0--------|
|-----1---1---1-|-------3--------|-----3---3---3-|    |-----3---3---3--|
|---2-------2---|-----2---2---2--|---0-------0---|    |---4-------4----|
|---------------|---0-------0----|---------------|    |----------------|
|-0-------------|----------------|---------------|    |-2--------------|
|---------------|-2--------------|-3-------------|    |----------------|
sopra uno scoglio che ci si può tuffare___
( accordi tradizionali seguendo la sequenza di arpeggio riportata nelle Tab
per gli altri accordi)
Mim                      Sim7
e quel sole ce l'hai dentro al cuore
Do7+          Re
sole di primavera
Sol                   Do7+    Re/Fa#    Sol   Do  Re
su quello scoglio in maggio è nato un fiore

(Verse 2 - come Verse 1)
E ti ricordi c'era il paese in festa
tutti ubriachi di canzoni e di allegria
e pensavo che su quella sabbia
forse sei nata tu
o a casa di mio fratello non ricordo più.

(Chorus)
          Lam   Sol       Re/Fa#
E ci hai visti su___  dal cielo
          Mim                     Re/Fa# Re/Fa#(1) Re/Fa#
ci hai trovato paino sei venuta giù____
         Lam     Sol    Re
un passaggio da un gabbiano
       Mim                         Re
ti ha posato su uno scoglio ed eri tu.


(Verse 3 - come Verse 1)

Ma che bel sogno era Maggio e c'era caldo
noi sulla spiaggia vuota ad aspettare
e tu che mi dicevi guarda su quel gabbiano
e stammi vicino e tienimi la mano

(Repeat Chorus)

(Repeat Verse1)

(Outro : Do7+ Re/Fa# Sol (x4 Rallentando))


Era in un file che ho nel computer da tempo, quindi non ricordo da dove l'ho presa...

EDIT tra l'altro questo topic esiste già, ma non erano riportate tabs o accordi... http://chitarradaspiaggia.com/forum/vie ... ore+maggio

MessaggioInviato:
di SoundOfDreams
uniamo i topic và..

MessaggioInviato:
di Mauro80
bVava, io non ero sicuro se era il caso o no :oops:

Sei sempre la meglio :)

MessaggioInviato:
di C.r.A.z.Y
Mauro80 ha scritto:bVava, io non ero sicuro se era il caso o no :oops:

Sei sempre la meglio :)


lo hai detto fratello...

MessaggioInviato:
di lamento
in fiore di maggio suonano due chitarre ..una in sol e una col capotasto al settimo in do.
una versione da spiaggia potrebbe essere come la faccio io ..fingerpicking tutto in ottavi ..

Codice: Seleziona tutto
-------------------------------------------------------------------------
-------0--------0-------0-------0--------3-------1-------3-------1-------
---0--------0-------0-------0--------2-------2-------2-------2-----------
-----0--------0-------2-------2--------0-------0-------0-------0---------
------------------3-------3----------------------------------------------
-3--------3------------------------2-------2-------2-------2-------------
                                                                             


..eccetera

MessaggioInviato:
di C.r.A.z.Y
farlo nel modo che piu piace a se stessi...quello è il modo giusto...

Re: Fabio Concato - Fiore di Maggio

MessaggioInviato:
di Il Giustiziere delle note


Codice: Seleziona tutto
FIORE DI MAGGIO (Fabio Concato)
edit by QUIQUO (Marco)  /  http://quiquo.altervista.org
(su Quiquo tutte le diteggiature degli accordi, la lavagna di Archimede per cambiare la tonalità, separare il testo dagli accordi e scegliere il layout di stampa)

INTRO:(x2)
(1° chitarra)
[SOL]             [DO7+]          [RE/FA#]  [RE7/FA#]
e---------------------------------|---------------------------------|
B-------0---------------0---------|-------3-------1-------1-------1-|
G-----0-------0-------0-------0---|-----2-------2-------2-------2---|
D---0-------0---0---2-------2---2-|---0-------0-------0-------0-----|
A-----------------3-------3-------|---------------------------------|
E-3-------3-----------------------|-2-------2-------2-------2-------|

(2°chitarra - capo al 7° tasto)
[DO]            [FA7+]             [SOL]
e--------0---------0-----0--------|---------------------------------|
B--1---------1-------2-------2----|-3-----3-------3-------3---------|
G----0-----------------3----------|---0-------0-------0-------0-----|
D------2-----------3--------------|-----0-------0-------0-------0---|
A--3------------------------------|---------------------------------|
E---------------------------------|-3-------------------------------|

(NB: nell'arpeggio la prima corda non viene mai suonata, eccetto che sul passaggio [RE/FA#][REsus2/FA#][RE/FA#] del Chorus)

[SOL] Tu che sei nata [DO7+] dove c'è sempre il [RE/FA#] sole [RE7/FA#]
[LAm7] sopra uno scoglio [RE/FA#] che ci si può tuffa__[SOL]re [/FA#]
[MIm] e quel sole ce l'hai [SIm7] dentro al cuore
[DO7+add13] sole di primavera [RE/FA#]
[SOL] su quello scoglio in [DO7+] maggio è [RE/FA#] nato un [SOL] fiore
[DO7+] [RE6/FA#]

[SOL] E ti ricordi [DO7+] c'era il paese in [RE/FA#] festa [RE7/FA#]
[LAm7] tutti ubriachi [RE/FA#] di canzoni e d'allegri___[SOL]a [/FA#]
[MIm] e pensavo che su [SIm7] quella sabbia
[DO7+add13] forse sei nata tu [RE/FA#]
o a [SOL] casa di mio fra[DO7+]tello non ri[RE/FA#]cordo [SOL] più

CHORUS:
E ci hai [LAm] visto [LAm/SOL] su dal [RE/FA#] cielo [RE7/FA#]
ci hai tro[MIm]vato e piano sei venuta giù__ [RE/FA#][REsus2/FA#][RE/FA#]
Un pa[LAm]ssaggio [LAm/SOL] da un gab[RE/FA#]biano [RE7/FA#]
ti ho po[MIm]sata su uno scoglio ed eri [RE/FA#] tu___[RE7/FA#]__ 

[SOL] Ma che bel sogno [DO7+] era maggio e c'era [RE/FA#] caldo [RE7/FA#]
[LAm7] noi sulla spiaggia [RE/FA#] vuota ad aspetta__[SOL]re [/FA#]
e [MIm] tu che mi dicevi [SIm7] guarda su
[DO7+add13] quel gabbia__[RE/FA#]no
[SOL] stammi vicino e [DO7+] tieni[RE/FA#]mi la [SOL] mano 
[DO7+] [RE/FA#]

[SOL] [DO7+] [RE/FA#][RE7/FA#]    [LAm7] [RE/FA#] [SOL]  [/FA#]
[MIm] [SIm7] [DO7+] [RE/FA#]      [SOL]  [DO7+] [RE/FA#] [SOL]

E ci hai [LAm] visto [LAm/SOL] su dal [RE/FA#] cielo [RE7/FA#]
ci hai tro[MIm]vato e piano sei venuta giù__ [RE/FA#] [RE7/FA#]
Un pa[LAm]ssaggio [LAm/SOL] da un gab[RE/FA#]biano [RE7/FA#]
ti ho po[MIm]sata su uno scoglio ed eri [RE/FA#] tu___[RE7/FA#]__ 

[SOL] Tu che sei nata [DO7+] dove c'è sempre il [RE/FA#] sole [RE7/FA#]
[LAm7] sopra uno scoglio [RE/FA#] che ci si può tuffa__[SOL]re [/FA#]
[MIm] e quel sole ce l'hai [SIm7] dentro al cuore
[DO7+add13] sole di primavera [RE/FA#]
[SOL] su quello scoglio in [DO7+] maggio [RE/FA#] nasce un [SOL] fiore
[DO7+] [RE/FA#] [SOL] (x4)

***********
[RE/FA#]=2x0232
[RE7/FA#]=2x0212
[DO7+add13]=x32200
[REsus2/FA#]=2x0230
   

________________________________________
2° chitarra- capo al 7° tasto

INTRO:
[DO]             [FA7+]          [SOL]

(segui l'arpeggio di sopra)
[DO] Tu che sei nata [FA7+] dove c'è sempre il [SOL] sole
[REm7] sopra uno scoglio [SOL/SI] che ci si può tuffa__[DO]re [/SI]
[LAm] e quel sole ce l'hai [MIm] dentro al cuore 
[FA7+] sole di primavera [SOL/SI]
[DO] su quello scoglio in [FA7+] maggio è [SOL] nato un [DO] fiore 
[FA7+] [SOL]

[DO] E ti ricordi [FA7+] c'era il paese in [SOL] festa
[REm7] tutti ubriachi [SOL/SI] di canzoni e d'allegri___[DO]a [/SI]
[LAm] e pensavo che su [MIm] quella sabbia 
[FA7+] forse sei nata tu [SOL/SI]
o a [DO] casa di mio fra[FA7+]tello non ri[SOL]cordo [DO] più 

E ci hai [REm] visto [REm/DO] su dal [SOL] cielo
ci hai tro[LAm]vato e piano sei venuta giù__ [SOL]
Un pa[REm]ssaggio [REm/DO] da un gab[SOL]biano
ti ho po[LAm]sata su uno scoglio ed eri [SOL] tu_____   

[DO] Ma che bel sogno [FA7+] era maggio e c'era [SOL] caldo
[REm7] noi sulla spiaggia [SOL/SI] vuota ad aspetta__[DO]re [/SI]
e [LAm] tu che mi dicevi [MIm] guarda su 
[FA7+a] quel gabbia__[SOL/SI]no
[DO] stammi vicino e [FA7+] tieni[SOL]mi la [DO] mano   
[FA7+] [SOL]

[DO] [FA7+] [SOL]   [REm7] [SOL] [DO]  [/SI]
[LAm] [MIm] [FA7+] [SOL]      [DO]  [FA7+] [SOL] [DO]

E ci hai [REm] visto [REm/DO] su dal [SOL] cielo
ci hai tro[LAm]vato e piano sei venuta giù__ [SOL]
Un pa[REm]ssaggio [REm/DO] da un gab[SOL]biano
ti ho po[LAm]sata su uno scoglio ed eri [SOL] tu_____   

[DO] Tu che sei nata [FA7+] dove c'è sempre il [SOL] sole
[REm7] sopra uno scoglio [SOL/SI] che ci si può tuffa__[DO]re [/SI]
[LAm] e quel sole ce l'hai [MIm] dentro al cuore 
[FA7+] sole di primavera [SOL]
[DO] su quello scoglio in [FA7+] maggio [SOL] nasce un [DO] fiore 
[FA7+] [SOL] [DO] (x4)



Re: Fabio Concato - Fiore di Maggio

MessaggioInviato:
di Iosonoio
..ti adoro... FF::