Accordi Tab Riff Intro Guns N' Roses- Sweet child of mine

Hai trovato gli accordi chords di una canzone ad orecchio e vorresti suggerirla? Oppure vuoi proporre la TAB per chitarra del tuo Riff preferito? il testo? Questo è il forum giusto! Anche per suggerimenti sul ritmo di una canzone. Ricordati di usare la funzione cerca...

Re: Cover guns n'roses - sweet child of mine -

Messaggiodi ziomattu

Enriguitar ha scritto:grazie ziumattu x il consiglio!


Forse c'è un equivoco: il consiglio era rivolto in particolare a Simrulez, non certo a te... che non ne hai bisogno :x

Ottimo! -Considerato anche che iuttubo(lo detesto: non è fatto per la musica, mannaggia) ti mette il bastone tra le ruote- la suoni proprio bene!

Una piccola nota (tecnica tecnica): in quel pezzo ci sono alcuni bend&release scanditi da un unica plettrata. Prova ad individuarli e a suonarli con una sola pennata in fase di bend(poi rilasciando senza plettrare): è una tecnica che da un buon feeling ai pezzi melodici come questo, oltre che essere utilizzata dal buon slashetto.

Ribadisco: bravò :x
:shock:


Quì ci starebbe bene una frase ad effetto, che la leggi e dici:"Che stooooriaaaa!"; che mi qualificasse come uno "figo", acculturato, intelligentissimo, sensibbbile e dalla mente aperta...ma...
Non mi viene in mente nulla.
ziomattu
 
Messaggi: 194
Località: Cagliari


Re: Cover guns n'roses - sweet child of mine -

Messaggiodi Enriguitar

grazie ziumattu!
scusa se mi sono impossessato del commento ma nn avevo letto il riferimento!....grazie ankora!


Enriguitar
 
Messaggi: 3

Messaggiodi Little John

Mi potete indicare nella tab l'assolo che inzia piu o meno al minuto 3.35 graize tante :!:


:shock:


Little John
 
Messaggi: 469
Località: Bologna

Messaggiodi Mauro80

Volevo mettere tutta la tab, ma sembra essere troppo lunga... quindi rimando al link: http://www.ultimate-guitar.com/tabs/g/g ... ne_tab.htm

Da http://www.ultimate-guitar.com

Divertiscitevici! :)

E questo dovrebbe essere il solo oggetto di richiesta...

Codice: Seleziona tutto
  Guitar Solo
  Gtr I
   ~~~~~~                                 ~~~~~~~
   H.               +E    E    Q    S  S  E  +Q.      E
|-17b19============(17)r-15-|-14h==15p14-------------15-|
|---------------------------|------------17-(17)--------|
|---------------------------|---------------------------|
|---------------------------|---------------------------|
|---------------------------|---------------------------|
|---------------------------|---------------------------|
|
| Gtr II
|  E     E E E E E   E    E    E E  E     E   E  E E  E
|------------0--------------|-------------3-------------|
|----------0---0------------|-------1---------1---------|
|--------0-------0--------0-|----0---------------0----0-|
|--------------------2------|--2-------------------2----|
|---------------------------|---------------------------|
|--0------------------------|---------------------------|


                     |----3-----|
   E.   S  S  S  E  +Q     q    q      E      +E   E  E      +E   E  E  E
|-14h==15p14--------------12---14---|--------------------------------------|
|------------17-16-(16)-------------|-15pb17r(15)-12-----------------------|
|-----------------------------------|----------------14pb16r(14)-12-11h12--|
|-----------------------------------|--------------------------------------|
|-----------------------------------|--------------------------------------|
|-----------------------------------|--------------------------------------|
|
|  E E     E     E   E  E    E    E    E       E   E  E       E   E  E  E
|----------------2------------------|-----------------0--------------------|
|----------0---------0--------------|-------------------------1------------|
|----2------------------2---------2-|--------------2--------------2--------|
|--1-------------------------1------|----------2---------------------------|
|-----------------------------------|--0-----------------------------------|
|-----------------------------------|--------------------------------3--2--|


   ~~~                                                    ~~~~~~~
               |---3----|  |---3---|            |--3---|
   Q.      E  +E   E    E  E  E    E    +Q     +S   S  S  E  +E   Q.
|------------------------------------|-------------------------------------|
|----------------------------13---12-|-(12)---(12)h13p12s10-(10)-13b15-----|
|-----------------11---12-14---------|-------------------------------------|
|-14------14-(14)--------------------|-------------------------------------|
|------------------------------------|-------------------------------------|
|------------------------------------|-------------------------------------|
|
|  E  E E  E   E     E     E    E        E  E   E         E   E   E    E E
|----------0-------------------------|--------------------3----------------|
|-------0------0---------------------|----------1-------------1------------|
|-----0--------------0----------0----|------0---------------------0------0-|
|--------------------------2---------|---2-----------------------------2---|
|------------------------------------|-------------------------------------|
|--0---------------------------------|-------------------------------------|


               ~~~~
   Q    e  E  +Q.      E       +Q     E  E      +E   +E   E S    +S
|---------------------------|-----------15b17==(15)r(15)\---------------|
|-13---12-12-(12)-----12b13r|=(12)--------------------------7b8==(7)r===|
|---------------------------|--------14---------------------------------|
|---------------------------|-------------------------------------------|
|---------------------------|-------------------------------------------|
|---------------------------|-------------------------------------------|
|
|  E E  E  E   E  E E  E        E  E  E  E       E    E   E E
|----------2----------------|------------0------------------------------|
|-------0------0------------|--------------------1----------------------|
|----2------------2----2----|---------2---------------2-----------------|
|--1----------------1-------|------2------------------------------------|
|---------------------------|---0---------------------------------------|
|---------------------------|-----------------------------3-2-----------|


          ~~~~~~                       ~~~~~~
  +Q    E E +Q.     S    +S    +Q    E E +E  Q.
|----------------------------|-----------------------|
|-(7)---------------7b8==(7)r|=(7)-------------------|
|-------9-9-(9)--------------|-------9-9-(9)-8b9-----|
|----------------------------|-----------------------|
|----------------------------|-----------------------|
|----------------------------|-----------------------|
|
|  E  E E E  E  E E E           E  E E E  E  E   E E
|---------0------------------|---------3-------------|
|-------0----0---------------|-------1----1----------|
|-----0---------0---0--------|-----0---------0-----0-|
|-----------------2----------|--2----------------2---|
|----------------------------|-----------------------|
|--0-------------------------|-----------------------|


  ~~
  Q.     E  +Q.      E       +Q    E E    +E  Q   E
|-------------------------|-------------------------|
|-------------------------|-------------------------|
|-8s====11-(11)-----11b12r|=(11)---9----------------|
|-------------------------|----------9b10-(9)-7---9-|
|-------------------------|-------------------------|
|-------------------------|-------------------------|
|
| E E E  E   E  E E  E        E  E E E     E  E E E
|--------2----------------|----------0--------------|
|-----0------0------------|----------------1--------|
|---2-----------2----2----|--------2----------2-----|
|-1---------------1-------|------2------------------|
|-------------------------|---0---------------------|
|-------------------------|---------------------3-2-|


  Gtr V
  W                     W                      W
  ~~~                   ~~~~~~~~~~~~~
  H..             S S   Q.     E +E  Q.        Q.       E  +E  Q.
|---------------------|----------------------|----------------------------|
|-----------------7h8p|=7--------------------|----------------------------|
|-9-------------------|--------9-(9)-8b9-----|-8------/11-(11)-9b11-------|
|---------------------|----------------------|----------------------------|
|---------------------|----------------------|----------------------------|
|---------------------|----------------------|----------------------------|
|
| Gtr IV
| W                     W                      H            Q       E S S
|---------------------|----------------------|----------------------------|
|---------------------|----------------------|----------------------------|
|---------------------|----------------------|------------------------8-9-|
|---------------------|----------------------|----------------------------|
|---------------------|----------------------|----------------------------|
|---------------------|----------------------|----------------------------|
|
| Gtr II
| E   E E E E E E E     E  E E E  E  E   E E   E  E E   E   E  E    E E
|-------0-------------|------3---------------|------2---------------------|
|-----0---0-----------|----1---1-------------|----0-----0-----------------|
|-0---------0---0-----|-0---------0------0---|-2------------2-------2-----|
|-------------2---2---|--------------2-----1-|-----------------1----------|
|---------------------|----------------------|------------------------0---|
|---------------------|----------------------|----------------------------|


  A5
  E       E    E      E    E   E     E     E
  |       |    |      |    |   |     |     |
  /       /    /      /    /   /     /     /

  ~~~~
  W
|-------------------------------------------------|
|-------------------------------------------------|
|-9-----------------------------------------------|
|-------------------------------------------------|
|-------------------------------------------------|
|-------------------------------------------------|
|
| S   +S  S S  S    S S S  S S S  S  S  S  S  S
|-------------------7-8p7-11p7-8-11-12s14-11-12---|
|-7b8r(7)---7-10b12-------------------------------|
|---------9---------------------------------------|
|-------------------------------------------------|
|-------------------------------------------------|
|-------------------------------------------------|
|
| E       E    E      E    E   E     E     E
|---------------------0---------------------------|
|--------------------------1----------------------|
|--------------2---------------2-----------2------|
|---------2--------------------------2------------|
|-0-----------------------------------------------|
|-------------------------------------------------|


                                                        Em
                                                        Gtr V
   E     E     E     E     E     E        E     E        Q.          E +Q      E          E
   |     |     |     |     |     |        |     |        |           |  |      |          |
   /     /     /     /     /     o        o     /        /           /  /      o          o

                                                        Gtr IV
   ~~~                                                          ~~~~~~~~~~~~~
  +W                                                     Q      Q       Q      S     +S   S  S
|----------------------------------------------------||----------------------------------------|
|----------------------------------------------------||-15b17--15b17---15b17--15b17r(15)p12----|
|-(9)------------------------------------------------||-------------------------------------14-|
|----------------------------------------------------||----------------------------------------|
|----------------------------------------------------||----------------------------------------|
|----------------------------------------------------||----------------------------------------|
|
|                                |--3--|
|  S  S  S  S  S  S  S  S  S  S  S  S  S  S  S  E        W
|-14s15-12-14-15p14-12----14p11-12h14p12----17-------||----------------------------------------|
|----------------------15----------------15----15b17-||----------------------------------------|
|----------------------------------------------------||----------------------------------------|
|----------------------------------------------------||----------------------------------------|
|----------------------------------------------------||----------------------------------------|
|----------------------------------------------------||----------------------------------------|
|
|  E     E     E     E     E     E        E     E        W
|--------------------0-------------------------------||----------------------------------------|
|--------------------------1-------------------------||----------------------------------------|
|--------------2-----------------2-------------------||----------------------------------------|
|--------2-------------------------------------------||----------------------------------------|
|--0-------------------------------------------------||----------------------------------------|
|-----------------------------------------3-----2----||----------------------------------------|


  G5                                    A5                       B5       C5              D5    G5(type 2)
   Q.          E +Q   Q                  Q.          E +Q   E    E         Q      Q         Q    E.          S
   |           |  |   |                  |           |  |   |    |         |      |         |    |           |
   /           /  /   /                  /           /  /   /    /         /      /         /    /           /

          ~~~~~                                 ~~~~~
   Q      H           S     +S   S  S    Q      H           Q        a     Q      E  E     +Q    S     +S   E
|-------------------------------------|---------------------------------|--------15--------------------------|
|-15b17--15b17-------15b17r(15)p12----|-17b19--17b19-------17b19--------|-17b19-----17b19-(17)--17b19r(17)p15|
|----------------------------------14-|--------------------17b18---(17)-|------------------------------------|
|-------------------------------------|---------------------------------|------------------------------------|
|-------------------------------------|---------------------------------|------------------------------------|
|-------------------------------------|---------------------------------|------------------------------------|
|
|  W                                     W                                 W
|-------------------------------------|---------------------------------|------------------------------------|
|-------------------------------------|---------------------------------|------------------------------------|
|-------------------------------------|---------------------------------|------------------------------------|
|-------------------------------------|---------------------------------|------------------------------------|
|-------------------------------------|---------------------------------|------------------------------------|
|-------------------------------------|---------------------------------|------------------------------------|
|
|  W                                     W                                 W
|-------------------------------------|---------------------------------|------------------------------------|
|-------------------------------------|---------------------------------|------------------------------------|
|-------------------------------------|---------------------------------|------------------------------------|
|-------------------------------------|---------------------------------|------------------------------------|
|-------------------------------------|---------------------------------|------------------------------------|
|-------------------------------------|---------------------------------|------------------------------------|


  Em                             G5
      Q.    E     +Q      E  E    Q.               E    +Q   Q
      |     |      |      |  |    |                |     |   |
      /     /      /      o  o    /                /     /   /

      ~~~                                       ~~~      ~~
   a  Q.    E     +E   E  E  E    E     +S   S  E.    S  Q   E  E
|---------------------12-------|-------------------------------------|
|-15h17----15b17-(15)----15-12-|-------------------------------------|
|------------------------------|-14b15r(14)p12-14----12-14--12-14b16-|
|------------------------------|-------------------------------------|
|------------------------------|-------------------------------------|
|------------------------------|-------------------------------------|


A5                                      B5           C5                                D5              G5(type 2)
   Q.        E +Q                  E      E            Q                Q                Q                E.     S
   |         |  |                  |      |            |                |                |                |      |
   /         /  /                  /      /            /                /                /                /      /

  +E   E  E  E  S      +S   S  S  +S   S  S     +S     S  S     +S   S  S     +S   S  S  S     +S   S  S  S  S S S
|--------------------------15-----------------------|-15------------15------------15------------------------------|
|--------------------------15------------15----(15)-|-15------------15---------------15---------------------------|
|(14)-12-14-12-14b16==(14)----14r(14)-12-14b16-(14)-|----14b16-(14)----14b16-(14)-------14b16r(14)p12----14p12-x-x|
|---------------------------------------------------|-------------------------------------------------14-------x-x|
|---------------------------------------------------|-------------------------------------------------------------|
|---------------------------------------------------|-------------------------------------------------------------|


  Em                                           G5
   Q.                 E  +Q       E     E       Q.                 E  +Q       Q
   |                  |   |       |     |       |                  |   |       |
   /                  /   /       o     o       /                  /   /       /

                      ~~~~~~~~~~~                                  ~~~~~~~~~~~
   E.      +S   S  S  E  +E  S S  S  S  S  S    E.      +S   S  S  E  +E  S S  S  S  S  S
|--------------------------------------------|--------------------------------------------|
|--------------------------------------------|--------------------------------------------|
|-12b12.5-(12)-------------------12h14p12----|-12b12.5-(12)-------------------12h14p12----|
|--------------14p12-14-(14)-x-x----------14-|--------------14p12-14-(14)-x-x----------14-|
|--------------------------------------------|--------------------------------------------|
|--------------------------------------------|--------------------------------------------|


  A5                                         B5
   Q.                 E    +Q           E     E
   |                  |     |           |     |
   /                  /     /           /     /

   S   S  S  S  S  S  S  S  S  S  S  S  S  S  E
|-----------------------------------------------|
|--------------------------12-12-------15-15p12-|
|-12--12-------14-14p12-14-------14p12----------|
|--------14p12----------------------------------|
|-----------------------------------------------|
|-----------------------------------------------|


  C5                   D5    G5(type 2)        Em
   Q           Q        Q     E.           S    Q.                   E       +Q              E     E
   |           |        |     |            |    |                    |        |              |     |
   /           /        /     /            /    /                    /        /              o     o

                              |--3---|                               |--3--|        |--3--|        |--3--|
   S  S  S  S  S  S  E  e  e  S   S  S  S  S    S     S  S  S  E     S  S  S  E     S  S  S  E     S  S  S
|-12-12-------15-15p12-15-14-----12h15p12----|-------12-------------12-------------12-------------12-------|
|-------15p12----------------15-----------15-|-15b17----15p12----------15p12-15b17----15p12----------15p12-|
|--------------------------------------------|----------------14b16-------------------------14b16----------|
|--------------------------------------------|-------------------------------------------------------------|
|--------------------------------------------|-------------------------------------------------------------|
|--------------------------------------------|-------------------------------------------------------------|


  G5
   Q.                   E       +Q              Q
   |                    |        |              |
   /                    /        /              /

         |--3--|        |--3--|        |--3--|  |------6-------|
   E     S  S  S  E     S  S  S  E     S  S  S  S  S  S  S  S  S
|-------12-------------12-------------12-------------12-------15b17-|
|-15b17----15p12----------15p12-15b17----15p12----12----15p12-------|
|----------------14b16-------------------------14-------------------|
|-------------------------------------------------------------------|
|-------------------------------------------------------------------|
|-------------------------------------------------------------------|


  A5                               B5
    Q.        E   +Q       E        E
    |         |    |       |        |
    /         /    /       /        /

                       ~~~
                           |--3--|
   +Q.       +E   +S   E.  S  S  S  S  S
|-(15)b18---(15)-(15)-15--12h15p12----12-|
|----------------------------------15----|
|----------------------------------------|
|----------------------------------------|
|----------------------------------------|
|----------------------------------------|


  C5                                 D5            G5(type 2)
   Q              Q                    Q             E.               S
   |              |                    |             |                |
   /              /                    /             /                /

                  |----3-----|                       |--3---|   |---3----|
   S     S  S  S  S     +S   S  E     +S   S  E     +S   S  S   S   S    S
|-------12-----------------------------------------------------------------|
|-15b17----15p12--------------------------15-------------------------------|
|----------------14b16r(14)p12-14b16-(14)----14b16r(14)p12----(14)p12------|
|----------------------------------------------------------14-----------14-|
|--------------------------------------------------------------------------|
|--------------------------------------------------------------------------|


Outro
  E5                 G5
   Q  E E +H         Q  E E +Q  +Q
   |    |  |         |    |  |   |
   /    /  /         /    /  /   /

   H       Q    Q    W
|------------------|----------------|
|------------------|----------------|
|-12s=====(2)/-----|----------------|
|------------------|----------------|
|------------------|----------------|
|------------------|----------------|


Mauro80
 
Messaggi: 7933
Località: TO

Messaggiodi Little John

Cazzu io queste tab un po complesse faccio fatica a capirlee poi e bello lunghetto.... :|

va be dai mi accontentero si sapere l'intro comunque grazie siete sempre magnifici



:shock:


Little John
 
Messaggi: 469
Località: Bologna

Messaggiodi Little John

Ragazzi che ve ne pare del mio video(non fate conto delle sbavature quando registro non riesco mai nemmeno nelle canzoni piu facile a farle tutte been :twisted: :twisted: :twisted: :twisted: :twisted: )

Un parere sincero :oops:

http://it.youtube.com/watch?v=4fIunAykDpc

E fatto con la web che ho nel computer quindi si sente e soprattutto si vede di ... :oops:


Little John
 
Messaggi: 469
Località: Bologna

Messaggiodi Mauro80

Io aggiungerei un po' di gain, il suono è troppo "pulito"... il selettore dei p.up al manico, ed accorda bene il mi cantino che è fuorissimo... te lo dice uno che pensa di avere accordato la chitarra, poi dopo avere fatto i video si accorge che è tutto da rifare!!! :wink:


Mauro80
 
Messaggi: 7933
Località: TO

Messaggiodi Jurimbert

Una bellissima interpretazione di questa meravigliosa canzone...
Dedicata a Sound...
:)

http://it.youtube.com/watch?v=zZN1puUwH0c


Jurimbert
 
Messaggi: 144
Località: Cervinia

Messaggiodi SoundOfDreams

Jurimbert ha scritto:Una bellissima interpretazione di questa meravigliosa canzone...
Dedicata a Sound...
:)

http://it.youtube.com/watch?v=zZN1puUwH0c
Un mito


SoundOfDreams
 
Messaggi: 12638
Località: Villa Literno (Caserta)

Messaggiodi CrAzYfAbIoL0

SoundOfDreams ha scritto:
Jurimbert ha scritto:Una bellissima interpretazione di questa meravigliosa canzone...
Dedicata a Sound...
:)

http://it.youtube.com/watch?v=zZN1puUwH0c
Un mito


fantastico l'assolo col wah-wah *__* *__* *__* *__*


'Sei mai stato felice?' .. 'Si era un giovedì..'

Imparare a suonare i Power Chords con la chitarra
CrAzYfAbIoL0
 
Messaggi: 2046
Località: Sardegna / Emilia-Romagna

Messaggiodi thejackal91

ho comprato da qualke giorno l'elettrika e mi sn subito cimentato su qst canzone ke è bellissima, ho iniziato a fare l'intro, mi viene un po maluccio, xo sn gia fiero di me :P, cmq se a qlkn va qlk volta faccio il video cosi potete dirmi dov è ke sbaglio e dv devo migliorare...


thejackal91
 
Messaggi: 14

Messaggiodi mauz bitto

cEEEerto...basta che ce lo posti qui.....noi saremo felici di stapparti un
complimento :)


mauz bitto
 
Messaggi: 3531
Località: Bitonto (Ba)

Messaggiodi MrWhite32

ricordate che il buon Slash usa l'accordatura di un semitono sotto.. quindi per esempio l'intro di sweet child o' mine andrebbe fatto partendo dal tasto 11 e traslando tutti i tasti di uno!
Almeno, io lo faccio così, trovo che sia più fedele all'originale :shock:


MrWhite32
 
Messaggi: 5

cover

Messaggiodi thejackal91

ecco la mia inerpretazione di sweet child o mine...abbiate clemenza poichè ho la chitarra elettrica da solo 4 giorni quindi...regolatevi di conseguenza..aspetto critike ma sopratutto consigli...


http://it.youtube.com/watch?v=C_29PycwCtk


thejackal91
 
Messaggi: 14

Messaggiodi Ronny92

x la chitarra d'accompagniamento io faccio questi accordi

DO# SI FA# DO#


Ronny92
 
Messaggi: 113

PrecedenteProssimo


Torna a Accordi TAB Riff testo chords - Studiare canzoni


Chi c’è in linea

Visitano il forum: Nessuno e 19 ospiti