Accordi Tab Riff Intro Guns N' Roses- Sweet child of mine

Hai trovato gli accordi chords di una canzone ad orecchio e vorresti suggerirla? Oppure vuoi proporre la TAB per chitarra del tuo Riff preferito? il testo? Questo è il forum giusto! Anche per suggerimenti sul ritmo di una canzone. Ricordati di usare la funzione cerca...

Re: cover

Messaggiodi guidomix

thejackal91 ha scritto:ecco la mia inerpretazione di sweet child o mine...abbiate clemenza poichè ho la chitarra elettrica da solo 4 giorni quindi...regolatevi di conseguenza..aspetto critike ma sopratutto consigli...


http://it.youtube.com/watch?v=C_29PycwCtk


bravo jackal.....usi un accordatura un mezzotono sotto????come nell'originale....bravo bravo!!!

prove a metterci un po' di più fluidità e al contempo "arroganza"....e un po' di più gain sull'amplificatore.....poi, sembra tu abbia una fender o cmq una eko stampo fender,quindi il selettore dei pick up mettilo tutto in basso,quindi otterrai un suono che evidenzia di più gli acuti.....cmq davvero bravo per essere poco che suoni!se hai domande siamo tutti qua!


a chi serve per indicazioni o altro vi lascio il mio indirizzo msn messenger....
guidomix
 
Messaggi: 92
Località: Fiumicello(UD)


Messaggiodi Jimi Hendrix

raga ma questa non è la versioen originale..
cm faccio a fare l'intro cosi?-----> http://it.youtube.com/watch?v=_p-FJW4GlPQ


Jimi Hendrix
 
Messaggi: 85
Località: Bisceglie (BA)

Messaggiodi Little John

Le persone che ho visto in molti video usano solo le tre dita per fare l'intro ma bisognerebbe usare il mignolino...anche perche è un buon allenamento...


Little John
 
Messaggi: 469
Località: Bologna

Messaggiodi andrechallant

Jimi Hendrix ha scritto:raga ma questa non è la versioen originale..
cm faccio a fare l'intro cosi?-----> http://it.youtube.com/watch?v=_p-FJW4GlPQ


hai provato ad accordare la chitarra un semitono piu' basso? :? io l'avevo imparata da qua e mi suona abbastanza, anche se la faccio lentissima...


''Parlare di musica è come ballare di architettura.'' [F.Zappa]

Liuteria costruire da soli la chitarra, tutte le discussioni rilevanti
andrechallant
 
Messaggi: 2004
Località: Torino

Messaggiodi Jimi Hendrix

guardate bene il video si il riff è quello ma poi cambia un pò non è tutto uguale fino a qui--->
--12-------12--14--15--14--12----------
-------15--------------------------15-----
--------------------------------------------
--------------------------------------------
--------------------------------------------
--------------------------------------------


Jimi Hendrix
 
Messaggi: 85
Località: Bisceglie (BA)

Messaggiodi andrechallant

ti riporto alla prima pagina, dove sound e pappy hanno postato praticamente la stessa tab..

----------------------15-------14--------
-------15---------------------------------
------------14--12-------14-------14----
--12--------------------------------------- x2
--------------------------------------------
--------------------------------------------

----------------------15--------14--------
-------15----------------------------------
--------------------------------------------
--14-------14--12--------14--------14--- x2
--------------------------------------------
--------------------------------------------

----------------------15--------14--------
-------15----------------------------------
--12-------14--12--------14--------14---
-------------------------------------------- x2
--------------------------------------------
--------------------------------------------

e' pressocche' tutta uguale l'intro, cambiano solo le note iniziali del riff... :shock:


''Parlare di musica è come ballare di architettura.'' [F.Zappa]

Liuteria costruire da soli la chitarra, tutte le discussioni rilevanti
andrechallant
 
Messaggi: 2004
Località: Torino

Messaggiodi S&R

io più o meno la riesco a fare, magari poi posto un video


Epiphone sg special (black)

Ampli (non so che marca sia LoL) 40w
S&R
 
Messaggi: 238

Messaggiodi Velor

La sto studiando! A breve il video, preparate i pomodori da lanciarmi!

:P


Il mio gruppo è quasi pronto....! Mi servono solo un chitarrista, un bassista, un batterista, un tastierista, e un cantante XD
Velor
 
Messaggi: 205

Messaggiodi guidomix

Little John ha scritto:Le persone che ho visto in molti video usano solo le tre dita per fare l'intro ma bisognerebbe usare il mignolino...anche perche è un buon allenamento...


questo riff,per lo meno l'intro, è da fare con solo le tre dita!!!!


Little John ha scritto:raga ma questa non è la versioen originale..
cm faccio a fare l'intro cosi?-----> http://it.youtube.com/watch?v=_p-FJW4GlPQ


è la versione originale....ce la fai con ore di studio e un bel po' di gain sull' ampli!


se riesco domani faccio un video...così commentate.....:D

mo vado a nanna però!


a chi serve per indicazioni o altro vi lascio il mio indirizzo msn messenger....
guidomix
 
Messaggi: 92
Località: Fiumicello(UD)

Messaggiodi syndrome

Scusate.. sarò orbo io però nella tab non riesco a trovare un pezzo di canzone :S

http://it.youtube.com/watch?v=_p-FJW4GlPQ
`
è il pezzo che suona a 02:24

Non è che mi potreste dare quel pezzo di tab?


syndrome
 
Messaggi: 65

Messaggiodi Elphizo

La tablatura dell'intro postata non è corretta, a me risullta essere così:
Codice: Seleziona tutto
Parte A
E|--------------15----14----
B|-----15-------------------
G|--------14-12----14----14-
D|--12----------------------
A|--------------------------
E|--------------------------

Parte B
E|--------------15----14----
B|-----15-------------------
G|--------14-12----14----14-
D|--14----------------------
A|--------------------------
E|--------------------------

Parte C
E|--------------15----14----
B|-----15-------------------
G|--12----14-12----14----14-
D|--------------------------
A|--------------------------
E|--------------------------

Parte Finale
E|--12----------12----14----   |--15----14----12-------
B|--------15----------------   |--------------------15-
G|-----14----14----14----14-   |-----14----14----14----
D|--------------------------   |-----------------------
A|--------------------------   |-----------------------
E|--------------------------   |-----------------------

La successione delle parti è:
A,A,B,B,C,C,A,A,A,A,B,B,C,C,A,A,A,A,B,B,C,C,Finale


I say: hey rock'n'roller, power in your hands, you and your music make me rockin' mad!

Imparare accordi chitarra
Elphizo
 
Messaggi: 1323
Località: Mantova

Messaggiodi guidomix

Elphizo ha scritto:La tablatura dell'intro postata non è corretta, a me risullta essere così:
Codice: Seleziona tutto
Parte A
E|--------------15----14----
B|-----15-------------------
G|--------14-12----14----14-
D|--12----------------------
A|--------------------------
E|--------------------------

Parte B
E|--------------15----14----
B|-----15-------------------
G|--------14-12----14----14-
D|--14----------------------
A|--------------------------
E|--------------------------

Parte C
E|--------------15----14----
B|-----15-------------------
G|--12----14-12----14----14-
D|--------------------------
A|--------------------------
E|--------------------------

Parte Finale
E|--12----------12----14----   |--15----14----12-------
B|--------15----------------   |--------------------15-
G|-----14----14----14----14-   |-----14----14----14----
D|--------------------------   |-----------------------
A|--------------------------   |-----------------------
E|--------------------------   |-----------------------

La successione delle parti è:
A,A,B,B,C,C,A,A,A,A,B,B,C,C,A,A,A,A,B,B,C,C,Finale




cavolo hai ragione....nn ce nè neanche una esatta!


a chi serve per indicazioni o altro vi lascio il mio indirizzo msn messenger....
guidomix
 
Messaggi: 92
Località: Fiumicello(UD)

Messaggiodi syndrome

Elphizo ha scritto:La tablatura dell'intro postata non è corretta, a me risullta essere così:
Codice: Seleziona tutto
Parte A
E|--------------15----14----
B|-----15-------------------
G|--------14-12----14----14-
D|--12----------------------
A|--------------------------
E|--------------------------

Parte B
E|--------------15----14----
B|-----15-------------------
G|--------14-12----14----14-
D|--14----------------------
A|--------------------------
E|--------------------------

Parte C
E|--------------15----14----
B|-----15-------------------
G|--12----14-12----14----14-
D|--------------------------
A|--------------------------
E|--------------------------

Parte Finale
E|--12----------12----14----   |--15----14----12-------
B|--------15----------------   |--------------------15-
G|-----14----14----14----14-   |-----14----14----14----
D|--------------------------   |-----------------------
A|--------------------------   |-----------------------
E|--------------------------   |-----------------------

La successione delle parti è:
A,A,B,B,C,C,A,A,A,A,B,B,C,C,A,A,A,A,B,B,C,C,Finale


E che cambia da quella postata dagli altri..? :?

Cmq per avere il giusto suono dovresti abbassara l'accordatura di un semitono... oppure come faccio io fare la stessa tablatura ma spostata in giu di un tasto, quindi iniziando dall'11 e non dal 12 :)


syndrome
 
Messaggi: 65

Messaggiodi Elphizo

Ne ho vista una tutta sbagliata e comunque non c'era il finale da nessuna parte. Comunque si, se si vuole stare nella giusta tonalità si abbassa di un tasto o si scorda di un semitono.


I say: hey rock'n'roller, power in your hands, you and your music make me rockin' mad!

Imparare accordi chitarra
Elphizo
 
Messaggi: 1323
Località: Mantova

Messaggiodi Velor

Ragazzi come fate a sapere che Slash la tiene scordata?


Il mio gruppo è quasi pronto....! Mi servono solo un chitarrista, un bassista, un batterista, un tastierista, e un cantante XD
Velor
 
Messaggi: 205

PrecedenteProssimo


Torna a Accordi TAB Riff testo chords - Studiare canzoni


Chi c’è in linea

Visitano il forum: Nessuno e 29 ospiti