Accordi Tab Intro Solo Smoke on the water - Deep purple

Hai trovato gli accordi chords di una canzone ad orecchio e vorresti suggerirla? Oppure vuoi proporre la TAB per chitarra del tuo Riff preferito? il testo? Questo è il forum giusto! Anche per suggerimenti sul ritmo di una canzone. Ricordati di usare la funzione cerca...

Accordi Tab Intro Solo Smoke on the water - Deep purple

Messaggiodi jim




Gentilmente qualcuno potrebbe mettere gli accordi o la tab di qst canzone(smoke on the water) dei deep??!



Grazie


jim
 
Messaggi: 6


Accordi Tab Intro Solo Smoke on the water - Deep purple

Messaggiodi SoundOfDreams

Deep Purple - Smoke On The Water solo




Codice: Seleziona tutto
E||-----------------------|----------------------|--------------------------|
B||-----------------------|---------13b(15)r13---|---11----------11b(12)----|
G||-----------------10----|--12~~----------------|------12~~----------------|
D||-----------12----------|----------------------|----------------------12--|
A||-----------------------|----------------------|--------------------------|
E||-----------------------|----------------------|--------------------------|


                                                                 
------------------------------|----------------------------------|
----------11-11b(13)---11--10-|--8--10--8-10-8-----8-------------|
--10--12----------------------|----------------10-----10--8--10--|
------------------------------|----------------------------------|
------------------------------|----------------------------------|
------------------------------|----------------------------------|


                                                           
----------------------------|------------------------8-----------|
----------------------------|--11-11b(13)-11-11b(13)----8--11----|
-10--10b(12)10--10b(12)---12|------------------------------------|
----------------------------|------------------------------------|
----------------------------|------------------------------------|
----------------------------|------------------------------------|


                                                                       
---------8--------------------------------|----------------------------|
-------8---11-10-8------------------------|----------------------------|
10b(12)------------11-10-8----10-8-7------|-------------------8--7--5--|
-------------------------10--------10-8-7-|------8--7--10--8-----------|
------------------------------------------|--10------------------------|
------------------------------------------|----------------------------|


                                               
-----------------------|----------------------|
-----------------------|----------------------|
-(5)r3-----5--3--2--3--|--2--3--2--<0>--------|
-----------------------|----------------------|
-----------------------|----------------------|
-----------------------|----------------------|

                                                           
--------3-----3-3--------------------|-------------------------|
------3---6(8)-----6-5-3-------------|---------------------3-6-|
-5b(7)------------------6-5-3---5-3--|--5(7)-5(7)-5(7)-5(7)----|
------------------------------5------|-------------------------|
-------------------------------------|-------------------------|
-------------------------------------|-------------------------|

                                                 
--3--------3--6-8(10)---|--8(10) 8--6--8---------|
-----3--6---------------|----------------8----8--|
------------------------|------------------------|
------------------------|------------------------|
------------------------|------------------------|
------------------------|------------------------|


                                                                 




-------------8------8------8----8--10--|--11--13---13(15)--13(15)-|
--11(12)---8---11-8---11-8---11--------|--------------------------|
--------11-----------------------------|--------------------------|
---------------------------------------|--------------------------|
---------------------------------------|--------------------------|
---------------------------------------|--------------------------|


                                                           
--13--13-13b(15)-13-13b(15)-13|--15--13--------------------|
------------------------------|----------15--13--13b(15)---|
------------------------------|----------------------------|
------------------------------|----------------------------|
------------------------------|----------------------------|
------------------------------|----------------------------|


                                                                             
-------------------------|-----8--6--8-(10)r8----|--8--8b(10)---------------|
--------6----------------|--8--------------------|--------------------------|
--5b(7)--(7)r5-3-5-3b(5)-|-----------------------|--------------------------|
------------------------5|-----------------------|--------------------------|
-------------------------|-----------------------|--------------------------|
-------------------------|-----------------------|--------------------------|
                           (12 volte)

                                                         
------------------------|-------------------|-----------||
-----------------6------|--6(8)-------------|-----------||
------------------------|-------------------|-----------||
------------------------|-------------------|-----------||
------------------------|-------------------|-----------||
------------------------|-------------------|-----------||


b = banding
r = release
~ = vibrato


SoundOfDreams
 
Messaggi: 12638
Località: Villa Literno (Caserta)

Messaggiodi Pappy

--------------------------------------------------------------
--------------------------------------------------------------
--0--3--5-----0--3--6--5-----0--3--5--3--0---------------
--0--3--5-----0--3--6--5-----0--3--5--3--0---------------
--------------------------------------------------------------
--------------------------------------------------------------


8)


Pappy
 
Messaggi: 69

Messaggiodi SoundOfDreams

Pappy ha scritto:--------------------------------------------------------------
--------------------------------------------------------------
--0--3--5-----0--3--6--5-----0--3--5--3--0---------------
--0--3--5-----0--3--6--5-----0--3--5--3--0---------------
--------------------------------------------------------------
--------------------------------------------------------------


8)
Pappy.. quell'avatar è gigantesco.. mettine uno piu piccolo!!! :o


SoundOfDreams
 
Messaggi: 12638
Località: Villa Literno (Caserta)

Messaggiodi Lennon

vi uccido! se blackmore vedesse qste tab vi rinkorrerebbe in kapo al mondo!

La sequenza ORIGINALE è:

D-5 G-3 G-5
A-5 D-3 D-5

D-5 G-3 G-6 G-5
A-5 D-3 D-6 D-5

D-5 G-3 G-5
A-5 D-3 D-5

G-3 D-5
D-3 A-5


questi sn gli unici originali!!
guardate qualsiasi video dei deep purple! sn questi!


L'energia della musica è il carburante dell'anima..
Lennon
 
Messaggi: 227
Località: Milano

Messaggiodi SoundOfDreams

Lennon ha scritto:vi uccido! se blackmore vedesse qste tab vi rinkorrerebbe in kapo al mondo!

La sequenza ORIGINALE è:

D-5 G-3 G-5
A-5 D-3 D-5

D-5 G-3 G-6 G-5
A-5 D-3 D-6 D-5

D-5 G-3 G-5
A-5 D-3 D-5

G-3 D-5
D-3 A-5


questi sn gli unici originali!!
guardate qualsiasi video dei deep purple! sn questi!
scusa.. ma quello che ho postato io è il solo.


SoundOfDreams
 
Messaggi: 12638
Località: Villa Literno (Caserta)

Messaggiodi Lennon

no no!prendi il dvd della kollana "classic album" "MACHINE HEAD"
lo stesso blackmore spiega questi...eh...mi dokumento!


L'energia della musica è il carburante dell'anima..
Lennon
 
Messaggi: 227
Località: Milano

Messaggiodi SoundOfDreams

Lennon ha scritto:no no!prendi il dvd della kollana "classic album" "MACHINE HEAD"
lo stesso blackmore spiega questi...eh...mi dokumento!
Ok ti credo! Peddonooo :oops:


SoundOfDreams
 
Messaggi: 12638
Località: Villa Literno (Caserta)

Messaggiodi rockgirl

......dv arrivare io a semplificare il mondo x quelli ke nn sanno gli accordi di 5..... hehe io l' ho sempre fatta csì:
MI SOL LA MI SOL SIB LA MI SOL LA SOL MI MI
meglio se fatta tutta cn il mi maggiore trascinato cn il barrè

........................lo so lo so..... è solo il primo pezzo..... vedrò di trovarla tutta...... cmq fino qui mi sa ke riescono a farla tutti di sto forum :P


rockgirl
 

Messaggiodi V1NceNZ0

c'è qualcuno ke traduce quello ke ha scritto lennon x cortesia?
x quanto riguarda rockgirl, nn sn sicuro ke i tuoi siano gli accordi giusti.
questi mi sembrano più idonei. prova e fammi saxe
LA DO RE
LA DO MIb RE
LA DO RE DO LA


V1NceNZ0
 
Messaggi: 77
Località: Boscoreale(NA)

Messaggiodi SoundOfDreams

V1NceNZ0 ha scritto:c'è qualcuno ke traduce quello ke ha scritto lennon x cortesia?

Lennon ha praticamente scritto le due corde che devi suonare

D-5 G-3 G-5
A-5 D-3 D-5

D-5 G-3 G-6 G-5
A-5 D-3 D-6 D-5

D-5 G-3 G-5
A-5 D-3 D-5

G-3 D-5
D-3 A-5

D=RE
A=LA
G=SOL
quindi.. prendi ad esempio


G-3
D-3
sarebbe premere le corde di sol e e re al 3 tasto.


SoundOfDreams
 
Messaggi: 12638
Località: Villa Literno (Caserta)

Messaggiodi V1NceNZ0

ok ttt kiaro ma xkè quelle lettere???
D A G a ks servono


V1NceNZ0
 
Messaggi: 77
Località: Boscoreale(NA)

Messaggiodi SoundOfDreams

sono i nomi inglesi usati comumenente


SoundOfDreams
 
Messaggi: 12638
Località: Villa Literno (Caserta)

Messaggiodi Simon

In parole povere :

|---------------------------------------------------------------------
|---------------------------------------------------------------------
|-----------3----5----------3----6----5-----------3----5----3------
|----5------3----5----5----3-----6----5------5---3----5----3-----5
|----5-----------------5-----------------------5--------------------5
|---------------------------------------------------------------------

Qst è l'originale !!


Simon
 
Messaggi: 44

Re: smoke on the water - Deep purple

Messaggiodi Alex186

Nè dovrei sapere io meno di voi ,avete preso degli accordi che non centrano nulla ,certo fatta in un altra tonalità possono centrare,ma la tonalità di smoke on the water è sol5 fa5 cioè io la suono in power chord,però è lo stesso che mettiate un sol- è un fa però togliendo ovviamente il barre è diventa fa5,poi do5 lo stesso che fosse un do- ovviamente togliendo il barre,quindi gli accordi originali dei deep sono sol5 fa5 do5 lab è si ritorna in sol5 spero di essere stato chiaro


Alex186
 
Messaggi: 8

Prossimo


Torna a Accordi TAB Riff testo chords - Studiare canzoni


Chi c’è in linea

Visitano il forum: Nessuno e 19 ospiti