Imperial march - Metallica (Guerre Stellari)

Hai trovato gli accordi chords di una canzone ad orecchio e vorresti suggerirla? Oppure vuoi proporre la TAB per chitarra del tuo Riff preferito? il testo? Questo è il forum giusto! Anche per suggerimenti sul ritmo di una canzone. Ricordati di usare la funzione cerca...

Imperial march - Metallica (Guerre Stellari)

Messaggiodi Kraken

questa tab l'ho fatta io dal questo video ------> http://www.youtube.com/watch?v=mlmsGCAzxVQ

è anche molto facile
Codice: Seleziona tutto
e -------------------------------|--------------------------------|-----------------------------------|
B -------------------------------|--------------------------------|-----------------------------------|
G ----------------7--------7-----|-11----------12--7--------7-----|-----------------------------------|
D --9--9999/5--5--7--9--5--7--9--|-11-11111111-12--7--9--5--7--9--|0-----0--0-------------------------|
A --9--9999/5--5--5--9--5--5--9--|-9--9-9-9-9--10--5--9--5--5--9--|--000-------4-3-212-----6-5-4-323--|
E --7--7777/3--3-----7--3-----7--|--------------------7--3-----7--|---------------------0-------------|

e--------------------------------||
B--------------------------------||
G-----------7--------7-----------||
D-----9--5--7--9--5--7--9--------||
A-----9--5--5--9--5--5--9--------||
E--0--7--3-----7--3-----7--------|| 


nel caso notiate qualche errore ditemelo cosi la correggo


Kraken
 
Messaggi: 1031
Località: catania tra parco della vittoria e viale dei giardini


Imperial march - Metallica

Messaggiodi Lopla

Ciao a tutti.Ecco la tab di Imperial march dei Metallica

Codice: Seleziona tutto
Date: Wed, 7 Aug 2002 22:58:41 +0300 (EEST)
From: red fox <red_bad_fox@abv.bg>
Subject: m/metallica/imperial_march.tab

Metallica
Imperial March

Tuning - D A F E G D

. - palm mute
h - hammer on
p - pull off
/ - slide

Riff A
D----------------------------------|------------------------------------|
A----------------------------------|------------------------------------|
F-----------------------------------|-----------------------------------|
E-----------------4----------------|-8-8-8-8-8--7-4------4----------|
G-6-6-6-6-6--2-2-6--2-2-6-----|-6-6-6-6-6--5-2-5--2-2-6--------|
D-4-4-4-4-4--0---4---0---4-----|-------------------3--0---4--------|
     . . .                  . . .

Riff B
D--------------------------------------------------------------------------------------------|
A--------------------------------------------------------------------------------------------|
F--------------------------------------------------------------------------------------------|
E-13------13--12--11-10-9-10-----7-6-5-4-3-4-----------4------4---------------------|
G-11-6-6-11--10---9---8-7--8--7--5-4-3-2-1-2--2-5--2-2-6--2-2-6-------------------|
D-----4-4-------------------------5------------------0-3--0---4--0----4-------------------|
          . .

NOTE: play all both riffs twice! :)

Tabbed by Milen Vichev! Any comments or anything else send to
red_bad_fox@abv.bg !

Die by my hand
I Creep across the land
Killing first born man

Have fun !!!


Fonte:http://www.tabsheaven.net


Oppure ecco un'altra versione (con accordatura standard):
Codice: Seleziona tutto
FlamingTabs [http://www.flamingtabs.com]
imperial march
metallica

e-----------------------------
b-----------------------------
g-2--2--2--2-----5--2-----5--2
d-2--2--2--2--3--5--2--3--5--2
a-0--0--0--0--3--3--0--3--3--0
e-------------1--------1------

e-----------------------------
b-----------------------------
g-9--9--9--9-10--5--2--3--5--2
d-9--9--9--9-10--5--2--3--5--2
a-7--7--7--7--8--3--0--3--3--0
e----------------------1------

e-----------------------
b-----------------------
g-2--2h3h2-0------------
d------------2h3h2-2h3h2
a-----------------------
e-----------------------

e-----------------------------
b-----------------------------
g-2--2--2--2-----5--2-----5--2
d-2--2--2--2--3--5--2--3--5--2
a-0--0--0--0--3--3--0--3--3--0
e-------------1--------1------


Fonte.http://www.flamingtabs.com

Ciao
Ultima modifica di Lopla su , modificato 5 volte in totale.


Lopla
 
Messaggi: 67

Re: Imperial march - Metallica

Messaggiodi Mr. D

Dovrebbe esserci già a questo topic viewtopic.php?f=3&t=8071&hilit=marcia+imperiale


Mr. D
 
Messaggi: 1869
Località: MI

Re: Imperial march - Metallica

Messaggiodi Lopla

"£! E si hai ragione.Chiedo scusa.Poi io non ho trovato il topic indicato perchè l'ho cercato con il nome in inglese:appunto imperial march e non in italiano marcia imperiale.Ho pensato di cercare solo il nome originale della canzone.
Scusate, di nuovo
Chiedo per evitare che qualcun altro faccia il mio stesso errore di modificare il titolo del topic segnalato aggiungendo anche il nome in inglese tra parentesi.

Ciao


Lopla
 
Messaggi: 67

Re: Imperial march - Metallica

Messaggiodi noice

si potrebbero unire i due topic in questo con il titolo in inglese..
aggiungo anche una video lezione


"i plettri sono fatti per essere persi, dimenticati, fregati agli amici, scambiati come fiches del casinò.. lavati con i jeans.." [cit. Mario]

Guida ai plettri per chitarra
noice
 
Messaggi: 1718
Località: Ischia

Re: Imperial march - Metallica

Messaggiodi Lopla

si potrebbe fare anche così.aspettiamo qualche mod che giugichi


Lopla
 
Messaggi: 67

Re: Imperial march - Metallica (Guerre Stellari)

Messaggiodi mauz bitto

se lo dite voi unisco i topic, ma sicuri si tratti della stessa canzone? C??$


mauz bitto
 
Messaggi: 3531
Località: Bitonto (Ba)

Re: Imperial march - Metallica (Guerre Stellari)

Messaggiodi Lopla

Si sono la stessa canzone.
Ma c'è un problema:nella prima tab che ho postato mentre scrivevo il messaggio le note erano allineate perfettamente,nel topic no.Ho provato a modificare il messaggio ed erano giuste ma nel topic risultano allineate male perchè???


Lopla
 
Messaggi: 67

Re: Imperial march - Metallica (Guerre Stellari)

Messaggiodi mauz bitto

perchè forse chi ha trascritto la tab ha allineato le note con i trattini usando
un carattere diverso dal Courier new col quale sono scritte le tab nel tag CODE.


mauz bitto
 
Messaggi: 3531
Località: Bitonto (Ba)



Torna a Accordi TAB Riff testo chords - Studiare canzoni


Chi c’è in linea

Visitano il forum: Nessuno e 14 ospiti