Accordi Tab Intro Day Tripper - The Beatles

Hai trovato gli accordi chords di una canzone ad orecchio e vorresti suggerirla? Oppure vuoi proporre la TAB per chitarra del tuo Riff preferito? il testo? Questo è il forum giusto! Anche per suggerimenti sul ritmo di una canzone. Ricordati di usare la funzione cerca...

Accordi Tab Intro Day Tripper - The Beatles

Messaggiodi mauz bitto




Questa è una delle prime che ho imparato:

Codice: Seleziona tutto
Intro/Verse:
e|-------------------------|
B|-------------------------|
G|-------------------------|
D|----------2--0---4---0-2-|
A|--------2------2---2-----|
E|-0--3-4------------------|

x 7 volte

e|-------------------------|
B|-------------------------|
G|----------2-0---4---0-2--|
D|--------2-----2---2------|
A|-0--3-4------------------|
E|-------------------------|

e|-------------------------|
B|-------------------------|
G|-------------------------|
D|----------2--0---4---0-2-|
A|--------2------2---2-----|
E|-0--3-4------------------|

   /  Got a good reason, for taking the easy way out      \
  /   Got a good reason, for taking the easy way out       \
  \   She was a day   tripper, one way ticket yeah         /
   \  It took me so    long to find out, and I found out  /


E7
She's a big teaser, she took me half the way there
A7                  E7
She's a big teaser, she took me half the way there

F#
She was a day tripper, one way ticket yeah
            A7     G#7        C#7          B7
It took me so long to find out, and I found out

e|-------------------------|
B|-------------------------|
G|-------------------------|
D|----------2--0---4---0-2-|
A|--------2------2---2-----|
E|-0--3-4------------------|

x 4 volte

e|-------------------------|
B|-------------------------|
G|----------2-0---4---0-2--|
D|--------2-----2---2------|
A|-0--3-4------------------|
E|-------------------------|

e|-------------------------|
B|-------------------------|
G|-------------------------|
D|----------2--0---4---0-2-|
A|--------2------2---2-----|
E|-0--3-4------------------|



Verse:
    E7
She's a big teaser, she took me half the way there
   A7                    E7
She's a big teaser, she took me half the way there now

Chorus:
  F#
She was a day tripper, one way ticket yeah
            A7     G#7        C#7          B7
It took me so long to find out, and I found out

collezionata in giro e adattata




mauz bitto
 
Messaggi: 3531
Località: Bitonto (Ba)


Messaggiodi ..sduella

..bellissima song..grandi beatles!!


..cREdO in QUeLla mUSicA cHE sA cOMe pREndERti In oGNi giRo di ViTa..
..obiettiVi per Il 2008:
1)RINALIZZARE IL MONDO

Chitarre economiche sotto 100 euro
..sduella
 
Messaggi: 931

Re: Day Tripper - Beatles

Messaggiodi LuCantante

QUESTA E' COMPLETA!!! :SSS VUONA MUSICA :SSS

This is the main riff:
e------------------------------
b------------------------------
g------------------------------
d-------------2-0---4----0-2----
a----------2------2----2--------
e--0--3-4-----------------------

Chorus:
F#
She was a daaa-y tripper, one way ticket yeah!
A G#
It took me so-o long
C B
to find out, and i found out.

Then:
E-------------------------------------------------
B----------------------2--------------------------
G-4-----------4--2-----------2--4-----------------
D-4--0--1--4--------4-----4-----------------------
A-2-----------------------------------------------
E-------------------------------------------------

repeat it 3 times and then

Solo:

E--------------------------5b------------
B--------3------3---5h-7--------7---5----
G-4---4-----4----------------------------
D----------------------------------------
A----------------------------------------
E----------------------------------------

E-----------10-------10---12b14b12---10---------------
B-12~--12~-------12-----------------------12----------
G-----------------------------------------------------
D-----------------------------------------------------
A-----------------------------------------------------
E-----------------------------------------------------

you play a variation in the 3rd verse

e------------------------------
b------------------------------
g------------------------------
d--------------2-0----4----0-2-
a-----------2-------2----2-----
e--0--3h-4---------------------

then repeat the main riff and fade out

chords used:

F# A G# C B
2 0 4 4 2
2 2 4 6 4
3 2 5 6 4
4 2 6 6 4
4 0 6 4 2
2 0 4 4 2


LuCantante
 
Messaggi: 50
Località: Ponte a Moriano - Lucca - Toscana

Re: Day Tripper - Beatles

Messaggiodi LuCantante

MI SCUSO! QUESTA CHE SEGUE E' LA VERSIONE COMPLETA!!! (l'assolo è scritto in fondo)
:SSS BUONA MUSICA :SSS

INTRO > D ||--------2-0-4-0-2--||
A ||-------2---2-2-----|| (x4)
E ||--0-3-4------------||

*STROFA > D ||--------2-0-4-0-2--||
A ||-------2---2-2-----|| (x2)
E ||--0-3-4------------||

G ||--------2-0-4-0-2--||
D ||-------2---2-2-----|| (x1)
A ||--0-3-4------------||
E ||-------------------||

D ||--------2-0-4-0-2--||
A ||-------2---2-2-----|| (x1)
E ||--0-3-4------------||

*STROFA ( MI7 – LA7 – MI7 )
GOT A GOOD REASON - FOR TAKING THE EASY WAY OUT
GOT A GOOD REASON - FOR TAKING THE EASY WAY OUT NOW
FA#
SHE WAS A DAY TRIPPER - A ONE WAY TICKET YEAH
LA SOL#7
IT TOOK ME SO LONG
DO#7 SI7
TO FIND OUT - AND I FOUND OUT

STACCO ½ INTRO + *STROFA ( MI7 – LA7 – MI7 )
SHE'S A BIG TEASER - SHE TOOK ME HALF THE WAY THERE
SHE'S A BIG TEASER - SHE TOOK ME HALF THE WAY THERE NOW
FA#
SHE WAS A DAY TRIPPER - A ONE WAY TICKET YEAH
LA SOL#7
IT TOOK ME SO LONG
DO#7 SI7
TO FIND OUT - AND I FOUND OUT

*PONTE > D ||---------9-7-11-7-9--||
A ||------6-9---9--9-----|| (x3) > SI(x4)
E ||--7-10-------3-4-----||

STACCO ½ INTRO + *STROFA ( MI7 – LA7 – MI7 )
TRIED TO PLEASE HER - SHE ONLY PLAYED ONE NIGHT STANDS
TRIED TO PLEASE HER - SHE ONLY PLAYED ONE NIGHT STANDS NOW
FA#
SHE WAS A DAY TRIPPER - A SUNDAY DRIVER YEAH
LA SOL#7
IT TOOK ME SO LONG
DO#7 SI7
TO FIND OUT - AND I FOUND OUT

INTRO(x2)
DAY TRIPPER - DAY TRIPPER YEAH (X2)

FINALE > MI7


E-----------10-------10---12b14b12---10---------------
B-12~--12~-------12-----------------------12----------
G-----------------------------------------------------
D-----------------------------------------------------
A-----------------------------------------------------
E-----------------------------------------------------


LuCantante
 
Messaggi: 50
Località: Ponte a Moriano - Lucca - Toscana



Torna a Accordi TAB Riff testo chords - Studiare canzoni


Chi c’è in linea

Visitano il forum: Nessuno e 2 ospiti