Accordi Tab Arpeggio Simon & Garfunkel The sound of silence

Hai trovato gli accordi chords di una canzone ad orecchio e vorresti suggerirla? Oppure vuoi proporre la TAB per chitarra del tuo Riff preferito? il testo? Questo è il forum giusto! Anche per suggerimenti sul ritmo di una canzone. Ricordati di usare la funzione cerca...

Accordi Tab Arpeggio Simon & Garfunkel The sound of silence

Messaggiodi killex29

Ciao raga...

c'è qualcuno che ha disponibili gli accordi di Sound Of Silence di Simon & Garfunkel?

grazie in anticipo

Tutta la discografia di Simon & Garfunkel


killex29
 
Messaggi: 5


Accordi Tab Arpeggio Simon & Garfunkel The sound of silence

Messaggiodi Francus




Ciao!!!!!!!!!
Eccoteli qui:
Codice: Seleziona tutto
--THE SOUND OF SILENCE--
Simon & Garfunkel           

Dm                                C                                                 Dm

Hello darkness my old friend I’ve cone to talk with you again

                  F               Bb      F                                      Bb         F

because a vision softly_ creeping left its seeds with I wa_s sleeping

              Bb                                           F                      Dm F                C             Dm

and the vision that was planted in my brain still remains       within the sound of silence

Dm                                        C                                            Dm

In restless dreams I walked alone narrow streets of cobble stone

                  F         Bb        F                                             Bb          F

‘neath the halo of a street lamp I turned my collar to the cold and damp

               Bb                                                              F

when my eyes were stabbed by the flash of the neon light

                     Dm  F                            C            Dm

that split the night    and touched the sound of silence

Dm                                 C                                                  Dm

And in the naked light I saw ten thousand people may be more

            F                 Bb         F                                   Bb        F

people talking without speaking people hearing without listening

                         Bb                                  F                       Dm F                  C           Dm

people writing songs that voices never share and no one dare   disturb the sound of silence

Dm                                    C                                       Dm

Fools, said I, you do not know silence like a cancer grows

                F                 Bb                 F                                   Bb                 F

hear my words that I mi_ght teach you take my arms that I mi_ght reach you

              Bb                                      F Dm     F                     C          Dm

but my words like silence raindrop fell    and echoed in the wells of silence

Dm                                        C                                        Dm

And the people bowed and prayed to the neon god they made

              F                     Bb        F                                     Bb       F

and the sign flashed out its warning in the words that it was forming

                                    Bb                                                                        F

and the signs said the words of the prophets are written on the subway walls

                        Dm F                                 C             Dm

and tenement halls    and wispered in the sounds of silence



X il ritmo nn t so dare consigli x ora xchè la devo provare!!!!Quando so qualkosa di + te lo dico!!!!!

ps: se nn conosci le note straniere:
B:SI D:RE C:DO F:FA

:!: :!: :P


Vivi la vita giorno x giorno!!!!!!!!
Guitar is all my life!!!!
Hola amigos!!!!!!!!

IMPOSSIBLE IS NOTHING
Francus
 
Messaggi: 235
Località: Bologna

Accordi Tab Arpeggio Simon & Garfunkel The sound of silence

Messaggiodi Dufresne

X il ritmo nn t so dare consigli x ora xchè la devo provare!!!!


provate un arpeggio stile questo...




Dufresne
 
Messaggi: 6160

Accordi Tab Arpeggio Simon & Garfunkel The sound of silence

Messaggiodi killex29

grazie mille :) ! :shock:


killex29
 
Messaggi: 5

Accordi Tab Arpeggio Simon & Garfunkel The sound of silence

Messaggiodi laurami

Bellissima canzone, la colonna sonora de "Il laureato" con De Niro... :idea:
E' stata rifatta da Dino e chiamata "La tua immagine".
Ecco il giro principale di accordi che io solitamente suono, praticamente un tono e mezzo sotto a quelli postati sopra:
Codice: Seleziona tutto
SI-                    LA                        SI-
Se tu guardi gli occhi miei che hanno pianto per amor,
           RE   SOL        RE
che han versato tante lacrime,
                     SOL   RE
puoi trovarci la tua immagine,
         SOL
quel tuo viso, quella bocca
        RE          SI-
che baciai, che baciai
RE  LA    SI-
e cosi' saprai.

A breve un mio video da solista
Ultima modifica di laurami su , modificato 1 volte in totale.


laurami
 
Messaggi: 843

Messaggiodi laurami

Dufresne ha scritto:
X il ritmo nn t so dare consigli x ora xchè la devo provare!!!!


provate un arpeggio stile questo...

http://www.youtube.com/watch?v=_dc-YIFY ... %20Silence

Mannaggia non si vedono le dita...


laurami
 
Messaggi: 843

The sound of silence - Simon and Garfunkel

Messaggiodi lorenzo

qualcuno ha gli accordi o tab ?????


lorenzo
 
Messaggi: 217
Località: carrara

Messaggiodi lorenzo

nessuno?????? aiutatemi :cry: :cry: :cry:


lorenzo
 
Messaggi: 217
Località: carrara

Messaggiodi Zarty

io ho trovato questo

Codice: Seleziona tutto

         Sounds of Silence

            by Simon & Garfunkel

e-|-----5-----5--|-----5-----5--|-----5-----5--|-----5-----5--|-----3-----3--|-
B-|--------5-----|--------5-----|--------5-----|--------5-----|--------3-----|-
G-|--7-----------|--7-----------|--7-----------|--7-----------|--5-----------|-
D-|--------------|--------------|--------------|--------------|--------------|-
A-|--------------|--------------|--------------|--------------|--------------|-
E-|--------------|--------------|--------------|--------------|--------------|-
                                        Hello darkness my old    friend,

e-|-----3-----3--|-----3-----3--|-----3-----3--|-----5-----5--|-----5-----5--|-
B-|--4-----3-----|--------3-----|--4-----3-----|--------5-----|--7-----5-----|-
G-|--------------|--5-----------|--------------|--7-----------|--------------|-
D-|--------------|--------------|--------------|--------------|--------------|-
A-|--------------|--------------|--------------|--------------|--------------|-
E-|--------------|--------------|--------------|--------------|--------------|-
        I've   come   to   talk  with you a-      gain

e-|-----5-----5--|-----5-----5--|-----6-----6--|-----5-----5--|--6--5-----5--|-
B-|--------5-----|--7-----5-----|--------6-----|--------6-----|--------6-----|-
G-|--7-----------|--------------|--7-----------|--5-----------|--------------|-
D-|--------------|--------------|--------------|--------------|--------------|-
A-|--------------|--------------|--------------|--------------|--------------|-
E-|--------------|--------------|--------------|--------------|--------------|-
        Because  a  vision  soft-  ly    creep-   ing ---           left it's

e-|-----5-----5--|-----6-----6--|-----5-----5--|--6--5-----5--|-----5-----5--|-
B-|--------6-----|--------6-----|--------6-----|--------6-----|--------6-----|-
G-|--5-----------|--7-----------|--5-----------|--------------|--5-----------|-
D-|--------------|--------------|--------------|--------------|--------------|-
A-|--------------|--------------|--------------|--------------|--------------|-
E-|--------------|--------------|--------------|--------------|--------------|-
     seeds while I  was  sleep-   ing                                  And the

e-|-----6-----6--|-----6-----6--|----10----10--|-----6-----6--|-----5-----5--|-
B-|--------6-----|--------------|-------11-----|--------6-----|--------6-----|-
G-|--7-----------|--8-----7-----|-10-----------|--7-----------|--5-----------|-
D-|--------------|--------------|--------------|--------------|--------------|-
A-|--------------|--------------|--------------|--------------|--------------|-
E-|--------------|--------------|--------------|--------------|--------------|-
     vision ---     that was      planted          in   my       brain

e-|--6--5-----5--|-----5-----5--|-----5-----5--|-----3-----3--|-----3-----3--|-
B-|--------6-----|--------5-----|--6-----5-----|--------3-----|--4-----3-----|-
G-|--------------|--7-----------|--------------|--5-----------|--------------|-
D-|--------------|--------------|--------------|--------------|--------------|-
A-|--------------|--------------|--------------|--------------|--------------|-
E-|--------------|--------------|--------------|--------------|--------------|-
        still re-   mains --      within the      sounds          of

e-|-----5-----5--|-----5-----5--|--5-------------------------------------------
B-|--------5-----|--6-----5-----|--6-------------------------------------------
G-|--7-----------|--------------|--7-------------------------------------------
D-|--------------|--------------|--0-------------------------------------------
A-|--------------|--------------|----------------------------------------------
E-|--------------|--------------|----------------------------------------------
     silence -----


Remaining verses strummed:

Chord voicings:

"C"       "F"       "Bb"     "Csus"
EADGBe    EADGBe    EADGBe    EADGBe
------    ------    ------    ------
X32010    xx3231    xx3331    x33211

                             C
In restless dreams I walked alone,
                        F
narrow streets of cobblestone
                   Bb      Csus
'neath the halo of a streetlamp
                          Bb       Csus
I turned my collar to the cold and damp
        Bb                                       Csus
when my eyes were stabbed by the flash of a neon light
           F                          C         F
split the night...   and touched the sound of silence

And in the naked light I saw
ten thousand people maybe more
people talking without speaking
people hearing without listening
people writing songs that voices never share
noone dare, disturb the sound of silence

Fools said I you do not know,
silence like a cancer grows,
hear my words that I might teach you
take my arms that I might reach you
but my words, like silent raindrops fell...
and echoed the will of silence

And the people bowed and prayed,
to the neon god they made
And the sign flashed out its warning
in the words that it was forming
And the sign said, "The words of the prophets
are written on the subway walls, and tenement halls
and whisper the sounds of silence."


Strumentazione:
-Ibanez JS1200
-Epiphone Blues Custom 30
-Altre cosette ;)
Zarty
 
Messaggi: 644
Località: Vicino a Udine

Messaggiodi laurami

Codice: Seleziona tutto
LA TUA IMMAGINE (DINO)

SI-                    LA                        SI-
Se tu guardi gli occhi miei che hanno pianto per amor,
           RE   SOL        RE
che han versato tante lacrime,
                     SOL   RE
puoi trovarci la tua immagine,
         SOL
quel tuo viso, quella bocca
        RE          SI-
che baciai, che baciai
RE  LA     SI-
e cosi' saprai.

Ciao, quelli che vedi sopra sono gli accordi con cui ho imparato "La tua immagine" di Dino, che in sostanza è il rifacimento de "The sound of silence", la canzone che tu cerchi, colonna sonora del film "Il laureato" con De Niro (tra l'altro molto bello).

ALTERNATIVA: prova anche questi accordi e vedi se ti suonano meglio rispetto a quelli sopra:
RE- DO RE-
FA SIb FA
SIb FA
SIb
FA RE-
FA DO RE-
Ultima modifica di laurami su , modificato 1 volte in totale.


laurami
 
Messaggi: 843

Messaggiodi laurami

Tempo fa ho fatto un video del solista, suonato molto lentamente per far capire bene le note:

Ed ora ho anche tirato giù la tablatura (la sapevo a memoria, essendomi stata insegnata di persona da un amico):

Codice: Seleziona tutto
                                    SI-
E---2---2---2---2-|---2---2---2---2-|---------2-2-0-|---------0-0---|-----2-2-5-5-7--7-5-|
B-0---2---0---2---|-0---2---0---2---|-0-0-3-3-------|-----2-2-----3-|-3-3----------------|
G-----------------|-----------------|---------------|-2-2-----------|--------------------|
D-----------------|-----------------|---------------|---------------|--------------------|
A-----------------|-----------------|---------------|---------------|--------------------|
E-----------------|-----------------|---------------|---------------|--------------------|

E-----2-2-5-5-7--7-5-|-2-5-7-7-|-7-9-10-10-|-9-7-5--7-5-2-|---5-----------|
B-3-3----------------|---------|-----------|--------------|-3-----2-3-2-0-|
G--------------------|---------|-----------|--------------|-----2---------|
D--------------------|---------|-----------|--------------|---------------|
A--------------------|---------|-----------|--------------|---------------|
E--------------------|---------|-----------|--------------|---------------|

Non è difficile, buon divertimento :wink:


laurami
 
Messaggi: 843

Accordi Tab Arpeggio Simon & Garfunkel The sound of silence

Messaggiodi storm

complimenti per l'orecchio e la tab.....laurami..... :o


Meglio essere feriti da una verità che essere consolati da una menzogna....
storm
 
Messaggi: 420
Località: Sicily

Messaggiodi laurami

Grazie, anche se a dire il vero di orecchio c'ho messo veramente poco, visto che le note me le hanno insegnate di persona (poi stamattina risuonandole ho fatto la tablatura).
Ah dimenticavo, nel video ho omesso la prima parte, inizio a suonare la tablatura dopo l'accordo di SI-.


laurami
 
Messaggi: 843

Messaggiodi storm

bravo...complimenti... :x


Meglio essere feriti da una verità che essere consolati da una menzogna....
storm
 
Messaggi: 420
Località: Sicily

Messaggiodi darkside

è DUSTIN HOFFMAN :twisted: :twisted: :twisted:

Non toccatemi De Niro :twisted: :twisted: :twisted:

:lol:


" Le bambine: Godin SD, Ovation, Jaguar ( Egmond prob. anni 60)
Effetti: Behringer OD100, Big Muff, Chorus VOX, Behringer Wah HB100, Ibanez Tubescreamer, Delay analogico.
Ampli: Roland SUper-Cube 100 "

è simplicemente UNA CHITARRA.
darkside
 
Messaggi: 128
Località: Rocktown

Prossimo


Torna a Accordi TAB Riff testo chords - Studiare canzoni


Chi c’è in linea

Visitano il forum: Nessuno e 12 ospiti