Accordi tab intro arpeggio Wish You Were Here - Pink floyd

Hai trovato gli accordi chords di una canzone ad orecchio e vorresti suggerirla? Oppure vuoi proporre la TAB per chitarra del tuo Riff preferito? il testo? Questo è il forum giusto! Anche per suggerimenti sul ritmo di una canzone. Ricordati di usare la funzione cerca...

Messaggiodi lorenzo-giudici

Philx ha scritto:Grazie rufus, lo strumming è in pratica il plettrare l'accordo, nente di più semplice.


in pratica le pennate... esatto???? ciao :shock:
"Sono sepolto fino al collo dalle mie contraddizioni. Sono il parassita di me stesso. Non ho bisogno di qualcuno che mi ospiti. Semmai hai bisogno di qualcosa ti pego non esitare a chiedere prima a qualqun altro"
Kurt Cobain
lorenzo-giudici
Musicista bebè
Musicista bebè
 
Messaggi: 372


Messaggiodi Philx

Si, le pennate.[/quote]
Philx
Musicista embrione
Musicista embrione
 
Messaggi: 23

Messaggiodi rufus89

ecco qui il ritmo si capisce bene e suona sia la tab della prima che della seconda chitarra...
"In ogni conflitto le manovre regolari portano allo scontro, e quelle imprevedibili alla vittoria." (Sun Tzu - L'arte della guerra)

Accordi e tab Asaf Avidan
Avatar utente
rufus89
Musicista affermato
Musicista affermato
 
Messaggi: 1002
Località: Latina

Messaggiodi Dufresne

Bellissima chicca!

bravo rufus
Avatar utente
Dufresne
ADMIN: Capo-spiaggia
ADMIN: Capo-spiaggia
 
Messaggi: 6148

Messaggiodi Dufresne

purtroppo su youtube la sincronia dell'audio con il video va un pò a farsi benedire...non so perchè... :?
Avatar utente
Dufresne
ADMIN: Capo-spiaggia
ADMIN: Capo-spiaggia
 
Messaggi: 6148

Messaggiodi CrAzYfAbIoL0

Dufresne ha scritto:purtroppo su youtube la sincronia dell'audio con il video va un pò a farsi benedire...non so perchè... :?


è vero.. anke nel video ke ho fatto io.. solo ke il mio era peggio.. dal video sembravo un mito.. poi sentivi l'audio e era lentissimo :lol:
'Sei mai stato felice?' .. 'Si era un giovedì..'

Imparare a suonare i Power Chords con la chitarra
Avatar utente
CrAzYfAbIoL0
Musicista guru
Musicista guru
 
Messaggi: 2046
Località: Sardegna / Emilia-Romagna

Messaggiodi Mines

quasi quasi poi posto anche io il mio intro ( moficato dall'ultima volta), così vediamo quale piace di più :)
Mines
Musicista neonato
Musicista neonato
 
Messaggi: 118

Messaggiodi Mines

non è venuto benissimo,però. :(
Mines
Musicista neonato
Musicista neonato
 
Messaggi: 118

Messaggiodi Mines

fatemi sapere qualosa,però :(
Mines
Musicista neonato
Musicista neonato
 
Messaggi: 118

Messaggiodi joezarlingo

Scusatemi ma ancora non riesco a capire, me lo spieghereste come se avessi 5 anni. Ogni accordo quanto plettlate sono? Non potreste fare uno schemino tipo quello che c'é nelle spiegazioni delle canzoni da spiaggia nella pagina principale... grazie mille e scusate l'abissale ignoranza
Siete ufficiali di polizia?
No, signora. Siamo musicisti.
[The Blues Brothers]
joezarlingo
Musicista embrione
Musicista embrione
 
Messaggi: 9
Località: Milano

Messaggiodi SoundOfDreams

ho imparato l'intro.. nn posso crederci :'( era uno dei miei obiettivi un anno fa... cavolo.. avevano ragione quando dicevano all'inizio.. nn puoi fare canzoni.. devi fare esercizi.. e un giorno ti accorgerai che ti riusciranno subito le canzonette(semplici) XD XD XD XD
SoundOfDreams
Musicista guru
Musicista guru
 
Messaggi: 12638
Località: Villa Literno (Caserta)

Messaggiodi SoundOfDreams

Codice: Seleziona tutto
Solo: ( 2nd Guitar )

e----------------------------------------------------------|
B----------3---5--------3----------------------------------|
G-----2/4-----------4--------4----2---0--------------------|     
D------------------------------------------0---------0---0-|
A-----------------------------------------------1/2--------|
E----------------------------------------------------------|


e----3/5/3-------------------------------------------------|
B----3/5/3----3/5/3----3----3/5/3--------------------------|
G-------------2/4/2----0----2/4/2---2p0----2/4-------------|
D------------------------------------------3/5-------------|
A----------------------------------------------------------|
E----------------------------------------------------------|


e---------------------------------------------------------------------|
B----------3--------5----5b---5----3--------------3-----5-------------|
G----2/4-------4----------------------2----4b----------------4b-----2-|
D---------------------------------------------------------------------|
A---------------------------------------------------------------------|
E---------------------------------------------------------------------|


e---------------------------------------------------------------------|
B---------3---------5-----5b-----5------3-----------------------------| 
G----2/4------4-----------------------------2----4b-------------------|
D---------------------------------------------------------------------|
A---------------------------------------------------------------------|
E---------------------------------------------------------------------|

il solo mi esce una merdina.. sicuri sia quest?
SoundOfDreams
Musicista guru
Musicista guru
 
Messaggi: 12638
Località: Villa Literno (Caserta)

Messaggiodi rachele

Io ho questa versione del solo...

E ||----------------------------------|----------------------------------|
B ||----------3----5---3--------------|----------------------------------|
G ||-----2-4---------4---------4h2-0 -|----------------------------------|
D ||----------------------------------|---0-------0-0--------------------|
A ||----------------------------------|------12-------------------------|
E ||----------------------------------|----------------------------------|

E ||---3-5--3------------------------|-3--------------------------------|
B ||---3-5--3--3-5---3----3-5---3--|-0--------------------------------|
G ||------------2-4---2-0--2-4---2-0|-0--------------------------------|
D ||----------------------------------|-0--------------------------------|
A ||----------------------------------|-2--------------------------------|
E ||----------------------------------|-3--------------------------------|

E ||----------------------------------|----------------------------------|
B ||---------3----5---(7)5-3----------|---------3-5----------------------|
G ||----2-4----4--------------4-------|--2--4(6)----4(6)---2-------------|
D ||----------------------------------|----------------------------------|
A ||----------------------------------|----------------------------------|
E ||----------------------------------|----------------------------------|

E ||----------------------------------|----------------------3-----------|
B ||---------3----5----5(7)-5-3--5----|----------------------0-----------|
G ||----2-4---------------------------|--2---4(6)2------0----0-----------|
D ||----------------------------------|----------------------0-----------|
A ||----------------------------------|----------------------2-----------|
E ||----------------------------------|----------------------3-----------|


Provatela e fatemi sapere!!!

Grazie...
rachele
Musicista neonato
Musicista neonato
 
Messaggi: 153

Messaggiodi SoundOfDreams

la tua è un po più complicata...
SoundOfDreams
Musicista guru
Musicista guru
 
Messaggi: 12638
Località: Villa Literno (Caserta)

Messaggiodi Dodi_Battaglia

Beh anke a me servirebbe una bella spiegazione tipo quelle del sito in "canzoni da spiaggia" :P sono proprio negato
Dicono che sia un istinto naturale sbattere le ali per volare , ma alla nostra vita manca solo il coraggio di alzarsi in volo !!!
Pooh
Avatar utente
Dodi_Battaglia
Musicista embrione
Musicista embrione
 
Messaggi: 29

PrecedenteProssimo


Torna a Accordi TAB Riff testo chords - Studiare canzoni


Chi c’è in linea

Visitano il forum: Nessuno e 6 ospiti