Pagina 1 di 1

Armonizzazione scala minore armonica di Sol

MessaggioInviato:
di thefort
Vorrei conoscere gli accordi con le 7, le 5 e tutto quello che serve della scala minore armonica di SOl. Spero di non aver fatto male a creare un nuovo argomento. Se si, cancellatelo. Grazie mille!

Re: Armonizzazione scala minore armonica di Sol

MessaggioInviato:
di Guit'EmAll
thefort ha scritto:Vorrei conoscere gli accordi con le 7, le 5 e tutto quello che serve della scala minore armonica di SOl. Spero di non aver fatto male a creare un nuovo argomento. Se si, cancellatelo. Grazie mille!



L'Armonizzazione della "Scala Minore Armonica di Sol" è:

Gmmaj7 Am7(dim5) Bbmaj7(aug5) Cm7 D7 Ebmaj7 F#°


&^^%

Re: Armonizzazione scala minore armonica di Sol

MessaggioInviato:
di thefort
Grazie mille! Gentilissimo come al solito, però mi spiegheresti cosa vuol dire quel pallino sopra l'ultimo accordo?

Re: Armonizzazione scala minore armonica di Sol

MessaggioInviato:
di Guit'EmAll
E' un "accordo di settima diminuita" detto anche "accordo di diminuita". E' un accordo diminuito a cui è stata aggiunta una Settima Diminuita. E' un accordo "simmetrico" perchè suddivide l'ottava in Intervalli tutti uguali. Nel caso specifico, quattro Intervalli tutti di tre semitoni.

Puoi anche scriverlo "F#m (dim5; dim7)". ;)


&^^%

Re: Armonizzazione scala minore armonica di Sol

MessaggioInviato:
di thefort
Senti, ultima cosa e poi sto zitto :D Mi sapresti dire come lo faccio quell'accordo di diminuita? Magari 2-3 posizioni sulla tastiera? Grazie

Re: Armonizzazione scala minore armonica di Sol

MessaggioInviato:
di Guit'EmAll
L'accordo di "F#°" è formato da Tonica "Fa#", Terza Minore "La", Quinta Diminuita "Do" e Settima Diminuita "Mib".

Puoi farlo così: " 2 3 4 2 4 2 " = " Fa# Do Fa# La Mib Fa# ".

TAB:

-----2----- <-----Fa#
-----4----- <-----Mib
-----2----- <-----La
-----4----- <-----Fa#
-----3----- <-----Do
-----2----- <-----Fa#


DITEGGIATURA:

||--------|---1---|--------|--------|--------| <-----Fa#
||--------|--------|--------|---4---|--------| <-----Mib
||--------|---1---|--------|--------|--------| <-----La
||--------|--------|--------|---3---|--------| <-----Fa#
||--------|--------|---2---|--------|--------| <-----Do
||--------|---1---|--------|--------|--------| <-----Fa#

------I------------------III----------------V--





Altrimenti potresti farlo ad esempio:

" X 9 7 8 7 8 " = " X Fa# La Mib Fa# Do ".

TAB:

-----8---- <-----Do
-----7---- <-----Fa#
-----8---- <-----Mib
-----7---- <-----La
-----9---- <-----Fa#
-----X---- <-----X


DITEGGIATURA:

|--------|--------|--------|---2---|--------| <-----Do
|--------|--------|---1---|--------|--------| <-----Fa#
|--------|--------|--------|---3---|--------| <-----Mib
|--------|--------|---1---|--------|--------| <-----La
|--------|--------|--------|--------|---4---| <-----Fa#
X--------|--------|--------|--------|--------| <-----X

-----V-----------------VII----------------IX----





Oppure potresti farlo ad esempio:

" X X 4 5 4 5 " = " X X Fa# Do Mib La ".

TAB:

-----5----- <-----La
-----4----- <-----Mib
-----5----- <-----Do
-----4----- <-----Fa#
-----X----- <-----X
-----X----- <-----X


DITEGGIATURA:

||--------|--------|--------|--------|---4---| <-----La
||--------|--------|--------|---2---|--------| <-----Mib
||--------|--------|--------|--------|---3---| <-----Do
||--------|--------|--------|---1---|--------| <-----Fa#
X---------|--------|--------|--------|--------| <-----X
X---------|--------|--------|--------|--------| <-----X

------I-----------------III------------------V---



Se hai altre domande, falle pure. ;)



&^^%