Accordi tab ritmo intro riff Afterhours - Male di miele

Hai trovato gli accordi chords di una canzone ad orecchio e vorresti suggerirla? Oppure vuoi proporre la TAB per chitarra del tuo Riff preferito? il testo? Questo è il forum giusto! Anche per suggerimenti sul ritmo di una canzone. Ricordati di usare la funzione cerca...

Accordi tab ritmo intro riff Afterhours - Male di miele

Messaggiodi Myself79



AFTERHOURS - Male di miele

Tune: D-A-D-G-B-E (Mi basso portato a Re)

\ = slide

Intro - main riff:


e:-------------------------------------------------
b:-------------------------------------------------
g:------------------------------------------------- x4
d:--------\9-9-9-9-9----------5-5-5-7-7-7----------
a:--------\9-9-9-9-9----------5-5-5-7-7-7----------
D:--------\9-9-9-9-9----------5-5-5-7-7-7----------

Verse:

e:-------------------------------------------------
b:-------------------------------------------------
g:-------------------------------------------------
d:--------\9-9-9-9-9----------5-5-5-7-7-7----------
a:--------\9-9-9-9-9----------5-5-5-7-7-7----------
D:--------\9-9-9-9-9----------5-5-5-7-7-7----------
La sicurezza ha un ventre tenero....


Bridge (w.dist.):

e:------------------------------------------------------------
b:------------------------------------------------------------
g:-------9-9-9-9--11-11-11-11--12-12-12-12--11-11-11-11-------
d:-------9-9-9-9--11-11-11-11--12-12-12-12--11-11-11-11-------
a:-------7-7-7-7--9--9--9--9---10-10-10-10---9--9--9-9--------
D:------------------------------------------------------------
Copriti bene se ti senti fredda...


e:---------------------------------------------
b:---------------------------------------------
g:------9-9-9---7-7-7-----------5-5-5----------
d:------9-9-9---7-7-7---7-7-7---5-5-5----------
a:------7-7-7---5-5-5---7-7-7---3-3-3----------
D:----------------------7-7-7------------------
Com'è strano il sapore che riesco a sentire

Chorus (w. dist.):

e:-------------------------------------------------
b:-------------------------------------------------
g:------------------------------------------------- x4
d:--------\9-9-9-9-9----------5-5-5-7-7-7----------
a:--------\9-9-9-9-9----------5-5-5-7-7-7----------
D:--------\9-9-9-9-9----------5-5-5-7-7-7----------

Male di mieleee


e:-----------------------------------------------
b:-----------------------------------------------
g:-----------------------------------------------
d:--------\11-11-11-11-11------7-7-7-9-9-9--------------
a:--------\11-11-11-11-11------7-7-7-9-9-9--------------
D:--------\11-11-11-11-11------7-7-7-9-9-9--------------
Ti do le stesse possibilità�
e:-------------------------------------------------
b:-------------------------------------------------
g:-------------------------------------------------
d:--------\9-9-9-9-9----------5-5-5-7-7-7----------
a:--------\9-9-9-9-9----------5-5-5-7-7-7----------
D:--------\9-9-9-9-9----------5-5-5-7-7-7----------

Di neve al centro dell'inferno ti va?

Finale:

e:-------------------------------------------------
b:-------------------------------------------------
g:-------------------------------------------------
d:--------\9-9-9-9-9----------5-5-5-7-7-7----------
a:--------\9-9-9-9-9----------5-5-5-7-7-7----------
D:--------\9-9-9-9-9----------5-5-5-7-7-7----------
Male di miele eeeeh

Testo:

La sicurezza ha un ventre tenero

ma è � demonio steso tra di noi

Ti manca e quindi puoi non crederlo

ma io non mi sentivo libero

E non è d�ce essere unici

ma se hai un proiettile ti libero

Gli errrori veri son più fo�i poi

quando fan finta di essere morti lo sai

Copriti bene se ti senti fredda

hai la pressione bassa nell'anima

Com'è str�o il sapore che riesco a sentire

Male di miele

male di miele

E la grandezza della mia morale

è prop�zionale al mio successo

Così ho ri�tto il letto al meglio sai

che sembra non ci abbiam dormito mai

Copriti bene se ti senti fredda

hai la pressione bassa nell'anima

Com'è strano�l sapore che riesco a sentire

Male di miele

male di miele

Ti do le stesse possibilità

di nev�al centro dell'inferno, ti va?

Male di miele

male di miele

Male di miele

male di miele


Myself79
 
Messaggi: 77


Re: Accordi tab ritmo intro riff Afterhours - Male di miele

Messaggiodi Susan

Bellissima, molto energica


Susan
 
Messaggi: 171



Torna a Accordi TAB Riff testo chords - Studiare canzoni


Chi c’è in linea

Visitano il forum: Nessuno e 13 ospiti